Аккорды The Seldom Scene - Wait a Minute (feat. John Starling)

Добавлено: @romashka
Дата добавления: 21 Марта 2024г.
Рейтинг:
0.0
Просмотров: 42
Транспонировать - +
e|---3----------------------|----------------------------|
B|---3----------------------|---------------3--3---------|
G|---0---4p2-0-1/2--4p2-0-2-|-2-2-0---0-2/4------4-2-0---|
D|---0----------------------|-------2--------------------|
A|---2----------------------|----------------------------|
E|---3----------------------|----------------------------|

e|---3----------------------|--------------------4/5-5-5-|-5/7--7--5--3---------------|
B|---3----------------------|-------------3--3-----------|----------------------------|
G|---0---4p2-0-1/2--4p2-0-2-|-2-2-0---0------2-----------|----------------------------|
D|---0----------------------|-------2---4----------------|----------------------------|
A|---2----------------------|----------------------------|----------------------------|
E|---3----------------------|----------------------------|----------------------------|

[Chorus]
G      D            Am                  C          G
Wait a minute did I hear you say you’re going far away again
       D                 Am               C                   D
Try to change it I can’t take the  lonely nights without your love

[Verse 1]
G         D    Am            C        G
Doing the road get the music done and move along
                  D  Am                  C                D
What good does it do play your songs for her and hear her say

[Chorus]
G      D            Am                  C          G
Wait a minute did I hear you say you’re going far away again
       D                 Am               C                   D
Try to change it I can’t take the  lonely nights without your love

[Verse 2]
G               D    Am                  C        G
You’re rolling along life’s been good to you and even so
             D    Am                 C                 D
She comes to you late at night’s the time you hear her say once again

[Chorus]
G      D            Am                  C          G
Wait a minute did I hear you say you’re going far away again
       D                 Am               C                   D
Try to change it I can’t take the  lonely nights without your love

[Verse 3]
G               D   Am              C                G
I’m waiting for you thirty days and nights without a rest
              D   Am             C           D
I got to hold on  twenty five to go and once again I’ll hear you say

[Chorus]
G      D            Am                  C          G
Wait a minute did I hear you say you’re going far away again
       D                 Am               C                   D
Try to change it I can’t take the  lonely nights without your love

************************************

| p  Pull-off
| /  Slide up
 

************************************ 
Наверх