Аккорды Van Morrison - Blue Monkey

Добавлено: @romashka
Дата добавления: 29 Мая 2024г.
Рейтинг:
0.0
Просмотров: 8
Intro:

    A
e|--------------------------|-----------------------|
B|-----------0-----2--------|--2--2--0--0--2-----x--|
G|--0--2--x--0--0--2--x-----|--2--2--0--0--2-----x--|
D|--0--0--x--0--0--2--x--2--|--2--2--0--0--2-----x--|
A|--0--0--x-----x--0--x--0--|--0--0-----0--0--0-----|
E|--------------------------|-----------------------|

Verse 1:

    D
e|-------2-----0--2-----|----------------------|
B|-------3-----3--3-----|--3-----3-----3-3--3--|
G|----2-----------------|--2-----2-----2-2--2--|
D|--0-------0--------0--|-----0-----0----------|
A|----------------------|----------------------|
E|----------------------|----------------------|

(with Above Riff):

        D
The pho-tographer smiles; take a break for a while,

    D
e|-------3-----2--0-----|--2-----2-----0--2--------|
B|-------3-----3--3--0--|--3-----3-----3--3-----3--|
G|----2-----------------|--------------------------|
D|--0-------0-----------|-----0-----0--------0-----|
A|----------------------|--------------------------|
E|----------------------|--------------------------|

(with Above Riff):

       D
Take a rest, do your very best;

    A
e|----------------------|---------------------------|
B|-------2-----0--2-----|--2-----2-----0--2---------|
G|-------2-----0--2-----|--2-----2-----0--2------2--|
D|----2-----------------|--------------------2h4----|
A|--0-------0--------0--|-----0-----0---------------|
E|----------------------|---------------------------|

(with Above Riff):

     A
Take five, honey.

    A
e|------------------------|--------------------|
B|-------2-----0--2-------|--3-----3-----2--0--|
G|-------2-----0--2-------|--2-----2-----2--0--|
D|----2----------------2--|--------------------|
A|--0-------0--------0----|-----0-----0--------|
E|------------------------|--------------------|

(with Above Riff):

A
 Five, honey.

    D
e|-------2-----0--2-----|--3-----2-----0-2---------|
B|-------3-----3--3-----|--3-----3-----3-3---------|
G|----2-----------------|-----------------------2--|
D|--0-------0--------0--|-----0-----0-------2h4----|
A|----------------------|--------------------------|
E|----------------------|--------------------------|

(with Above Riff):

    D
You search in your bag, light up a fag,

    D
e|-------2-----0--2-----|--2-----2-----3-2---------|
B|-------3-----3--3-----|--3-----3-----3-3---------|
G|----2-----------------|-----------------------2--|
D|--0-------0--------0--|-----0-----0-------2h4----|
A|----------------------|--------------------------|
E|----------------------|--------------------------|

(with Above Riff):

D
 Think it's a drag, but you're so glad,

    A
e|--------------------|---------------------|
B|-----2-----0--2-----|--3--3--2--0---------|
G|-----2-----0--2-----|--2--2--2--0------2--|
D|--------------------|--------------2h4----|
A|--0-----0--------0--|---------------------|
E|--------------------|---------------------|

(with Above Riff):

        A
To be a-live, honey.

    A
e|----------------------|--------------------|
B|-------2-----0--2-----|--2-----2-----0--2--|
G|-------2-----0--2-----|--2-----2-----0--2--|
D|----2-----------------|--------------------|
A|--0-------0--------0--|-----0-----0--------|
E|----------------------|--------------------|

(with Above Riff):

A
 Live, honey.

Chorus 1:

    E5
e|-------0-------0--|-------0-------0--|
B|-------0-------0--|-------0-------0--|
G|------------------|------------------|
D|------------------|------------------|
A|----2-------2-----|----2-------2-----|
E|--0-------0-------|--0-------0-------|

(with Above Riff):

          E5
Hey, when this is all over, you'll be in clover,
We'll go out and spend all of your,

    A
e|-------------------|--------------------|
B|-------2--0--2-----|--3-----2-----0--2--|
G|-------2--0--2-----|--2-----2-----0--2--|
D|----2-----------2--|--------------------|
A|--0----------------|-----0-----0--------|
E|-------------------|--------------------|

(with Above Riff):

A
 Blue money.

e|-------------------|-----------------------|
B|-------2-----0--2--|--2-----2-----0--2-----|
G|-------2-----0--2--|--2-----2-----0--2-----|
D|----2--------------|-----------------------|
A|--0-------0--------|-----0-----0--------0--|
E|-------------------|-----------------------|

(with Above Riff):

Blue money.

Bridge 1:

    D5
e|-------------------|-------------------|
B|------3-------3----|--3--3-----3-------|
G|----2---2---2------|--2--2-----2----2--|
D|--0-------0-----0--|--0--0--0-----0----|
A|-------------------|-------------------|
E|-------------------|-------------------|

(with Above Riff):

D5
 Do, do you do, do do, do you do,

e|-------------------|------------------|
B|------3-------3----|-----3-3-----3-3--|
G|----2---2---2------|-----2-2-----2-2--|
D|--0-------0-----0--|--0-------0-------|
A|-------------------|------------------|
E|-------------------|------------------|

(with Above Riff):

Do, do, do you do, do, do, do you do,

    A
e|--------------------|--------------------------|
B|-------2--0-2-------|--2-----2-----0-2---------|
G|-------2--0-2-------|--2-----2-----0-2------2--|
D|--2-2---------------|-------------------2h4----|
A|--0------------0-0--|-----0-----0--------------|
E|--------------------|--------------------------|

(with Above Riff):

A
 Do do. Alright!

e|---------------------|-----------------------|
B|-------2-----0-2-----|--3-----3-----2--------|
G|-------2-----0-2-----|--2-----2-----2-----0--|
D|----2----------------|-----------------0-----|
A|--0-------0-------0--|-----0-----0-----------|
E|---------------------|-----------------------|

(with Above Riff):

Do do.

(with Above Riffs):

D5
 Do, do you do, do do, do you do,
                                      A
Do, do, do you do, do, do, do you do, do do, do do.

Interlude:

    E5
e|-------0-------0--|-------0-------0--|
B|-------0-------0--|-------0-------0--|
G|------------------|------------------|
D|------------------|------------------|
A|----2-------2-----|----2-------2-----|
E|--0-------0-------|--0-------0-------|

e|-------0-------0--|-------0--------|
B|-------0-------0--|-------0--------|
G|------------------|----------------|
D|------------------|-------------2--|
A|----2-------2-----|----2-----2-----
Цель музыки - трогать сердца (Бах)
Мы стремимся к созданию контента, соответствующего всем нормам законодательства и уважающего интеллектуальную собственность. Мы также придаем большое значение тому, чтобы не задеть никого и не оскорбить чьи-либо чувства. Если у вас есть вопросы или претензии по размещенному материалу, пожалуйста, сообщите нам об этом на указанный адрес электронной почты: [email protected].
Шрифт
-
0
+
Прокрутка
-
0
+
Стоп
Наверх