Аккорды Y&T - Forever

Добавлено: @romashka
Дата добавления: 13 Февраля 2022г.
Рейтинг:
0.0
Просмотров: 24
Транспонировать - +
[Интро, таб см. ниже]: | Gm    Gm Gb  F  E  | Eb | D | Cm |   Cm  | D   Eb | D |
                       | Gm    Gm Gb  F  E  | Eb | D | Cm |   Cm  | D   Eb | D | Gm |

[Основной рифф]: | Gm Gm Gm Eb | F  F  F  F  |

Gm   Eb        F
I    surrender all my love
     Gm       Eb        F
And  you, you make my desire run
Gm   Eb        F
Hot, hot as the desert sands
     Gm
Your eyes have the power to warm me
     Eb        F
Like no others can

   Bb                 D
   Fallin', I keep on fallin'
           Eb                         F
   So much deeper, so much deeper for you

         Gm     F    Eb     D    Cm
      Forever,    forever,    forever
                  D    Eb   F
      Fallin' for you

[Проигрыш, таб см. ниже]: | Gm Gm Gm Eb | F  F  F  F  | Gm Gm Gm Eb | F  F  F  F  |

Gm          Eb      F
High, we're flyin' so high tonight
Gm          Eb              F
Touch, your touch makes the passion rise
Gm      Eb            F
Strong, strong as the mighty sea
Gm
I need search no more
           Bb     F
You're the end of rainbow for me

   Bb                 D
   Fallin', I keep on fallin'
           Eb                         F
   So much deeper, so much deeper for you

         Gm     F    Eb     D    Cm
      Forever,    forever,    forever
                  D    Eb  F
      Fallin' for you

[Соло, таб см. ниже]: | Gm Gm Gm F  | Eb Eb Eb D  | Cm Cm Cm Cm | D  Eb E  F  | - 5 раз,
                      | Gm Gm Gm F  | Eb Eb Eb D  | Cm Cm Cm Cm | D  D  D  D  |

      Bb                 D
   So come, come take my hand
       Eb
   And we'll ride the winds of heaven
                F
   Like only we can

         Gm     F    Eb     D    Cm
      Forever,    forever,    forever
                  D    Eb  F
      Fallin' for you
         Gm     F    Eb     D    Cm
      Forever,    forever,    forever
                  D    Eb  F
      Fallin' for you

         Gm
      Forever
                        F
      Fallin', fallin', fallin'
         Eb
      Forever
                           D
      I keep on fallin' so deeply
         Cm
      Forever
                                       D    Eb  F
      I guess I've fallin' fallin' for you

         Gm
      Forever
                  F
      I surrender all to you
         Eb
      Forever
                  D
      I surrender all my love
         Cm
      Forever
                         D
      I surrender all to you
      Forever!..

[Кода, таб см. ниже]: | Gm    Gm Gb  F  E  | Eb | D | Cm | D | Gb | Gm | Gm |



/* ТАБЫ */

[Интро]:

     Gm                        Gm Gb  F  E    Eb                               D
E||--------------------|--------------------|--------------------|--------------------|
B||--------------------|--------------------|--------------------|---------11---------|
G||--------------------|--12b--12-----------|--------------------|--12b--------12-----|
D||----------------12--|--------------------|----------------12--|--------------------|
A||--------10--13------|--------------------|--------10--13------|--------------------|
E||--------------------|--------------------|--------------------|--------------------|

     Cm                         Cm             D     Eb             D
E||--------------------|--------------------|--------------------|--------------------|
B||--------------------|--------15b-15------|--------------------|--------------------|
G||--------------------|--17b-----------17--|--14----17br--------|--------------------|
D||----------------17--|--------------------|--------------17----|--16----------------|
A||--------15--18------|--------------------|--------------------|--------------------|
E||--------------------|--------------------|--------------------|--------------------|

     Gm                        Gm Gb  F  E    Eb                               D
E||--------------------|--------------------|--------------------|--------------------|
B||--------------------|--------------------|--------------------|---------11---------|
G||--------------------|--12b--12-----------|--------------------|--12b--------12-----|
D||----------------12--|--------------------|----------------12--|--------------------|
A||--------10--13------|--------------------|--------10--13------|--------------------|
E||--------------------|--------------------|--------------------|--------------------|

     Cm                         Cm             D     Eb             D
E||--------------------|--------------------|--------------------|--------------------|
B||--------------------|--------15b-15------|--------------------|--------------------|
G||--------------------|--17b-----------17--|--14----17br--------|--------------------|
D||----------------17--|--------------------|--------------17----|--16---------14-15--|
A||--------15--18------|--------------------|--------------------|-------16-17--------|
E||--------------------|--------------------|--------------------|--------------------|

     Gm
E||-----------------------------------------------------------------------------------|
B||-----------------------------------------------------------------------------------|
G||--12h-14p-12h-14p-12h-14p-12h-14p-12h-14p-12h-14p-12h-14p-12h-14p-12---------------|
D||-----------------------------------------------------------------------------------|
A||-----------------------------------------------------------------------------------|
E||-----------------------------------------------------------------------------------|

[Проигрыш]:

     Gm        Eb           F                              Gm        Eb            F
E||----------------------|------------------------------|-----------------------|----------------------|
B||------------------10b-|--10----------------------11--|--13b-13b---13b-13-11--|--10----11-10---------|
G||--10b-10b---12-10-----|-------10----------10h12------|-----------------------|--------------12------|
D||----------------------|----------10b-10--------------|-----------------------|----------------------|
A||----------------------|------------------------------|-----------------------|----------------------|
E||----------------------|------------------------------|-----------------------|----------------------|

[Соло]:

     Gm                              F     Eb                              D
E||-------------------------------------|-------------------------------------|
B||-------------------------------------|-------------------------------------|
G||-------------------------------------|-------------------------------------|
D||-------5---5-------------------------|-------5---5-------------------------|
A||--------------------3---3-5----------|--------------------3---3-5----------|
E||--3--3---3----3-5-6---6-----6-5-3----|--3--3---3----3-5-6---6-----6-5-3----|

     Cm                              Cm        D      Eb     E      F        3x
E||-------------------------------------|------------------------------------||
B||-------------------------------------|------------------------------------||
G||-------------------------------------|-----------------------------------*||
D||-------5---5-------------------------|------5------6------7------8-------*||
A||--------------------3---3-5----------|------------------------------------||
E||--3--3---3----3-5-6---6-----6-5-3----|------------------------------------||

     Gm                                                   F
E||--------------------------------------------------------------------------|
B||--------------------------------------------------------------------------|
G||--------------------------------------------------------------------------|
D||--------17----17---------------------------------------15-----------------|
A||------------------------------15----15-17-----------------17-15-17-15-----|
E||--15-15----15--------15-17-18----18-------18-17-15--------------------18--|

     Eb                                                   D
E||--------------------------------------------------------------------------|
B||--------------------------------------------------------------------------|
G||--------------------------------------------------------------------------|
D||--------17----17---------------------------------------15-----------------|
A||------------------------------15----15-17-----------------17-15-17-15-----|
E||--15-15----15--------15-17-18----18-------18-17-15--------------------18--|

     Cm                                                   Cm
E||--------------------------------------------------------------------------|
B||--------------------------------------------------------------------------|
G||--------------------------------------------------------------------------|
D||--------17----17---------------------------------------15-----------------|
A||------------------------------15----15-17-----------------17-15-17-15-----|
E||--15-15----15--------15-17-18----18-------18-17-15--------------------18--|

         D      Eb     E      F 
E||------------------------------------|
B||------------------------------------|
G||------------------------------------|
D||------12-----13-----14-----15-------|
A||------------------------------------|
E||------------------------------------|

     Gm                                                             F
E||------15-----15-----15-----15-----15-----15-----15-----15-----15-----15-----15-----15--|
B||--18b----18b----18b----18b----18b----18b----18b----18b----18b----18b----18b----18b-----|
G||---------------------------------------------------------------------------------------|
D||---------------------------------------------------------------------------------------|
A||---------------------------------------------------------------------------------------|
E||---------------------------------------------------------------------------------------|

     Eb                                                              D
E||--18-17-15------15-----15-----15--18-17-15------15-----15-----15--18-17-15------15-----|
B||------------18b----18b----18b---------------18b----18b----18b---------------18b----18b-|
G||---------------------------------------------------------------------------------------|
D||---------------------------------------------------------------------------------------|
A||---------------------------------------------------------------------------------------|
E||---------------------------------------------------------------------------------------|

     Cm                                      D           Eb               E                F
E||--18b-18b---18b-18b---18b-18b---18b----|--17b---17-15-17b--17-15----15-------------------------|
B||---------------------------------------|-------------------------18----18b--18-16-15-----------|
G||---------------------------------------|---------------------------------------------15-17-----|
D||---------------------------------------|-------------------------------------------------------|
A||---------------------------------------|-------------------------------------------------------|
E||---------------------------------------|-------------------------------------------------------|

     Gm                                                    F
E||---------------------------------------------------------------------------|
B||--18-16-15-16-15----15-----------------------------------------------------|
G||-----------------17----17-15-17-15-14-15-14----14--------------------------|
D||--------------------------------------------17----17-15-17-15----15--------|
A||--------------------------------------------------------------18----18-17--|
E||---------------------------------------------------------------------------|

     Eb                                                    D
E||---------------------------------------------------------------------------|
B||---------------------------------------------------------------------------|
G||---------------------------------------------------------------------------|
D||-----------------------------------------------------------------------15--|
A||--18-17-15-17-15----15----------------------15----15-17-15-17-18-17-18-----|
E||-----------------18----18-17-18-17-15-17-18----18--------------------------|

     Cm                                                    Cm
E||--------------------------------------------------------18-17-15-----------|
B||--------------------------------------18-15----18-15-------------18-16-15--|
G||--------------------------------------------17-------17--------------------|
D||--17-15----17-15----17-15----17-15-----------------------------------------|
A||--------17-------17-------17-------17--------------------------------------|
E||---------------------------------------------------------------------------|

     D
E||--6-5-3-------------------------------|
E||--------6-4-3-------------------------|
E||--------------5-3-2-------------------|
E||--------------------5-3---------------|
E||------------------------6-3b----------|
E||--------------------------------------|

[Кода]:

     Gm                        Gm Gb  F  E    Eb                               D
E||--------------------|--------------------|--------------------|--------------------|
B||--------------------|--------------------|--------------------|---------11---------|
G||--------------------|--12b--12-----------|--------------------|--12b--------12-----|
D||----------------12--|--------------------|----------------12--|--------------------|
A||--------10--13------|--------------------|--------10--13------|--------------------|
E||--------------------|--------------------|--------------------|--------------------|

     Cm                   D                    Gb                   Gm
E||--------------------|--------------------|--------------------|--18b---------------|
B||--------------------|--------------------|--18b---------------|--------------------|
G||--------------------|--17b---------------|--------------------|--------------------|
D||----------------17--|--------------------|--------------------|--------------------|
A||--------15--18------|--------------------|--------------------|--------------------|
E||--------------------|--------------------|--------------------|--------------------|

     Gm                                        Gm
E||--18-15-18b---18-15-18b---18-15-18b------|----------------------------------------||
E||-----------------------------------------|----------------------------------------||
E||-----------------------------------------|----------------------------------------||
E||-----------------------------------------|--5-------------------------------------||
E||-----------------------------------------|--5-------------------------------------||
E||-----------------------------------------|--3-------------------------------------|| 

В оригинале играются не трезвучия, а соответствующие квинты: G5 вместо Gm, F5 вместо F и т. д.
Но на акустике неплохо звучит трезвучиями под бой типа ↓↑ ×××↓↑ ×××↓↑ ×××↓↑ ×××. 
Наверх