Аккорды Y&T - I Believe in You

Добавлено: @romashka
Дата добавления: 13 Февраля 2022г.
Рейтинг:
0.0
Просмотров: 23
Транспонировать - +
[Перебор в куплете]:

     Gm7                                  C(III)
E||------------------------------------|------------------------------------|
B||----3-----3-----3----3-----3-----3--|----5-----5-----5----5-----5-----5--|
G||------3-----3----------3-----3------|------5-----5----------5-----5------|
D||--------3-----3----------3-----3----|--------5-----5----------5-----5----|
A||------------------------------------|--3----------------3----------------|
E||--3----------------3----------------|------------------------------------|

     Am7(V)                               Bb(VI)
E||------------------------------------|------------------------------------|
B||----5-----5-----5----5-----5-----5--|----6-----6-----6----6-----6-----6--|
G||------5-----5----------5-----5------|------7-----7----------7-----7------|
D||--------5-----5----------5-----5----|--------8-----8----------8-----8----|
A||------------------------------------|------------------------------------|
E||--5----------------5----------------|--6----------------6----------------|

    Gm7                  C(III)
You came to me with your love to share
          Am7(V)            Bb(VI)
Showed me always that you'd be right there
          Gm7                    C(III)
Well, the love we shared and the times we had
            Am7(V)                 Bb(VI)
Were like a dream, baby, they were never bad 
    Gm7            C(III)
But how I felt has changed with time
        Am7(V)           Bb(VI) 
And you know my life has ceased to shine
Bb(VI)
But I'm telling you

       Dm(V)
   I believe in you
       C(III)         ( C(III) Dm(V) C(III) )
   I believe in you
       Am(V)
   I believe in you
      All I want to say to you
       Bb(VI)
   I believe in you
      I believe in you

    Gm7            C(III)
The way you are, I love you for
       Am7(V)          Bb(VI)
I only wish that I had gave you more
Gm7                C(III)
And after all that we've been through
        Am7(V)           Bb(VI)
I still see myself right here with you

       Dm(V)
   I believe in you
       C(III)         ( C(III) Dm(V) C(III) )
   I believe in you
       Am(V)
   I believe in you
      All I want to say to you
       Bb(VI)
   I believe in you
      I believe in you

     Gm7                     C(III)
Your phony friends, they all counsel you
                Am7(V)       Bb(VI)
The things they say, oh, you know aren't true
Gm7                     C(III)
'Cause even though I've been away, such a long time
Am7(V)
Just remember, baby, you remember, baby
         Bb(VI)
When you here me say, I'm telling you

       Dm(V)
   I believe in you
       C(III)         ( C(III) Dm(V) C(III) )
   I believe in you
       Am(V)
   I believe in you
      All I want to say to you
       Bb(VI)
   I believe in you
      I believe in you 
Наверх