Аккорды Алиса - Страх и контроль

Добавлено: @romashka
Дата добавления: 27 Мая 2022г.
Рейтинг:
0.0
Просмотров: 25
Транспонировать - +
Основной риф (играется после припевов) : 
A)----------7~5
E)0-0-1-(0)-----(0)-6-5--(0)-5-3--(0)-3-1

A)----------7~5-----------5
E)0-0-1-(0)------(0)-6-5--3

A)----------7~5
E)0-0-1-(0)-----(0)-6-5--(0)-5-3--(0)-3-1

E)---------------------------------0
B)---------------------------------0
G)---------------------------------4
D)---------------------------------2
A)----------7~5--8-8-8--5-5-5--2---2
E)0-0-1-(0)------6-6-6--3-3-3--0---0

Em
Когда под нож вели барана,
Em
Баран не чувствовал подвох –
G        D    B                    G
Послушно шел, и так же, как легло, издох.

Em
Такая участь ждет бездомных –
Em
Всех тех, с кем спелся Самаэль,
G        D    B                    G
Выть под кнутом в загонах отказных земель.

Em D    B7    Em    B
Страх и контроль безопасность бродит по венам…
Em         B    A            Em    G
Страх и контроль – «noir».
Em D    B7    Em    B
Страх и контроль, меченых рихтует система.
Em        B7
Страх и контроль на лоб наколот QR.

Em
Псы «золотого миллиона»
Em
Модифицируют геном,
G        D    B                    G
В код ДНК заходят просто — напролом.

Em D    B7    Em    B
Страх и контроль безопасность бродит по венам…
Em         B    A            Em    G
Страх и контроль – «noir».
Em D    B7    Em    B
Страх и контроль, меченых рихтует система.
Em        B7
Страх и контроль на лоб наколот QR.

Em
Век популяции исчерпан,
Em
Тремя шестерками забит.
G        D    B                    G
Игра пошла и жертвы требует гамбит.

F         Em
Страх... Контроль...
F         Em
Страх... Контроль...
F         Em
Страх... Контроль...
F         Bm
Страх... Контроль...

Em
Когда под нож вели барана,
Em
Баран не чувствовал подвох –
G        D    B                    G
Жил, как баран, и так же, как баран, издох. 
Наверх