Аккорды Alter Bridge - The Last Hero

Добавлено: @romashka
Дата добавления: 05 Апреля 2018г.
Рейтинг:
0.0
Просмотров: 60
Транспонировать - +
[Intro]

   Myles                             
D|-----------|-----------|-------------|--------------------|
A|-----------|-----------|-------------|--------------------|
F|-7---------|-6---------|--5----------|-4------------------|
C|-x---------|-x---------|--x----------|-x-------0-8-7-5-0~-|
G|-5(x14)----|-4(x16)----|--3-(x16)----|-2(x12)--0-8-7-5-0~-|
C|-----------|-----------|-------------|---------0-8-7-5-0~-|
 |
 | Mark
D|-0~--------|-0~--------|-0~----------|------13~-----------|           
A|-6~--------|-5~--------|-10~---------|-10~----------------|           
F|-7~--------|-6~--------|-10~---------|-7~-----------------| 
C|-7~--------|-7~--------|-10~---------|-9~-----------------| 
G|-----------|-----------|-------------|--------------------|           
C|-----------|-----------|-------------|--------------------|           

   Myles                             
D|-----------|-----------|-------------|--------------------|
A|-----------|-----------|-------------|--------------------|
F|-7---------|-6---------|--5----------|-4------------------|
C|-x---------|-x---------|--x----------|-x------------------|
G|-5(x14)----|-4(x16)----|--3-(x16)----|-2(x12)-------------|
C|-----------|-----------|-------------|--------------------|
 |
 | Mark
D|-0~--0-----|-0~--------|-0~---0------|------13~-----------|           
A|-6~----6---|-5~--------|-10~---------|-10~----------------|           
F|-7~------7-|-6~--------|-10~----10---|-7~-----------------| 
C|-7~--------|-7~--------|-10~------10-|-9~-----------------| 
G|-----------|-----------|-------------|--------------------|           
C|-----------|-----------|-------------|--------------------|           


 Mark
|-----12~-|----------|
|-5~------|-5~-------|
|-7~------|-6~-------|
|-8~------|-7~-------|
|---------|----------|
|---------|----------|




[Main Riff] Guitar I:

D|-------------------------|-----------------------|----------------------|
A|-------------------------|-----------------------|----------------------|
F|-------------------------|-----------------------|----------------------|(x4)
C|-------------------------|-----------------------|----------------------|
G|-5-5-5-5-5---------------|8-8-8-8-8--------------|-10-10-10-10-10-------|
C|----------7-7-3-3-0-0(x2)|----------10-10-8-8-7-7|----------------8-7b~-|

Guitar II:
D|--------------------------| |-----------------------| |------------------------|
A|--------------------------| |-----------------------| |------------------------|
F|--------------------------| |-----------------------| |------------------------|
C|--------------------------| |-----------------------| |------------------------|(x2)
G|-5-5-5-5-5----------------| |-8-8-8-8-8-------------| |-15-15-15-15-15-13-12b~-|
C|-----------7-7-3-3-0-0(x2)| |----------10-10-8-8-7-7| |------------------------|

[Verse]

D|-----0~-------0---0~-----------------------13~---12~--|     |-----13~----------12-13-----|
A|-6----6~-----------8~---10--------10~---10-----10~----|     |-11~----11~---11~------11---|
F|----7--7~(x2)---6---6~-------10-----------7-----------|     |---10~-----10~--10~------14~|
C|--0------------0----------10----10---------9----------|(x2) |----------------------------|
G|------------------------------------------------------|     |----------------------------|
C|------------------------------------------------------|     |----------------------------|

[Chorus]

D|-------0------------|------------------------------------------|
A|-------2------------|------------------------------------------|
F|-------3------9~----|--3--5--7--10\--5--7--9--12\---5~-----9~--|
C|-------0------7-----|--x--x--x--x----x--x--x--x-----3------7~--|(x2)
G|-------0------7-----|--1--3--5--8\---3--5--7--10\---3------7~--|
C|-12\0~-0(x15)-7(x10)|-------------------------------3(x10)-7~--|

[Main Riff] Guitar I:

D|-------------------------|-----------------------|----------------------|
A|-------------------------|-----------------------|----------------------|
F|-------------------------|-----------------------|----------------------|(x4)
C|-------------------------|-----------------------|----------------------|
G|-5-5-5-5-5---------------|8-8-8-8-8--------------|-10-10-10-10-10-------|
C|----------7-7-3-3-0-0(x2)|----------10-10-8-8-7-7|----------------8-7b~-|

Guitar II:

D|--------------------------| |-----------------------| |------------------------|
A|--------------------------| |-----------------------| |------------------------|
F|--------------------------| |-----------------------| |------------------------|
C|--------------------------| |-----------------------| |------------------------|(x2)
G|-5-5-5-5-5----------------| |-8-8-8-8-8-------------| |-15-15-15-15-15-13-12b~-|
C|-----------7-7-3-3-0-0(x2)| |----------10-10-8-8-7-7| |------------------------|

[Verse]

D|-----0~-------0---0~-----------------------13~---12~--|     |-----13~----------12-13-----|
A|-6----6~-----------8~---10--------10~---10-----10~----|     |-11~----11~---11~------11---|
F|----7--7~(x2)---6---6~-------10-----------7-----------|     |---10~-----10~--10~------14~|
C|--0------------0----------10----10---------9----------|(x2) |----------------------------|
G|------------------------------------------------------|     |----------------------------|
C|------------------------------------------------------|     |----------------------------|

[Chorus]

D|-------0------------|------------------------------------------|
A|-------2------------|------------------------------------------|
F|-------3------9~----|--3--5--7--10\--5--7--9--12\---5~-----9~--|
C|-------0------7-----|--x--x--x--x----x--x--x--x-----3------7~--|(x2)
G|-------0------7-----|--1--3--5--8\---3--5--7--10\---3------7~--|
C|-12\0~-0(x15)-7(x10)|-------------------------------3(x10)-7~--|

[Bridge]- There's a bit missing, so if I figure it out I'll edit it in :)

D|----------------------------------------------------|
A|----------------------------------------------------|
F|----------------------------------------------------|
C|----------------------------------------------------| (Repeat several times)
G|-5------------------0h3h5--5------------------8-8-8-|
C|--8p5p0-0h3h5-0h5h7---------8p5p0-0h3h5-0h5h7-------|

I have left a link for the Myles solo at the bottom of the tab :)

[After Solo]

D|------------| |--------------------| |------------------------|
A|------------| |--------------------| |------------------------|
F|------------| |--------------------| |------------------------|
C|-0-0-0-0----| |-0-0-0-0-0-0-0-0-0-0| |-0-0-0-0-----0-0-0-0----|
G|-0-0-0-0----| |-0-0-0-0-0-0-0-0-0-0| |-0-0-0-0-----0-0-0-0----|
C|-0-0-0-0(x2)| |-0-0-0-0-0-0-0-0-0-0| |-0-0-0-0(x2)-0-0-0-0-1b-| 

"Build them up to tear them down..."
D|------------------------|         |----13TR---15TR----13TR---|
A|------------------------|         |-10TR---12TR---13TR----13b|
F|-10\7~--9\6~--8\5-7~(x2)|         |--------------------------|
C|------------------------|         |--------------------------|
G|------------------------|         |--------------------------|
C|------------------------|         |--------------------------|

[Verse]

D|-----0~-------0---0~-----------------------13~---12~--|     |-----13~----------12-13-----|
A|-6----6~-----------8~---10--------10~---10-----10~----|     |-11~----11~---11~------11---|
F|----7--7~(x2)---6---6~-------10-----------7-----------|     |---10~-----10~--10~------14~|
C|--0------------0----------10----10---------9----------|(x2) |----------------------------|
G|------------------------------------------------------|     |----------------------------|
C|------------------------------------------------------|     |----------------------------|

D|-------------------------|
A|-------------------------|
F|-------------------------|
C|---------14b-------------|
G|-------------------------|
C|-8-10-12-12b-8-10-12-12/-|

[Chorus]

D|-------0------------|------------------------------------------|
A|-------2------------|------------------------------------------|
F|-------3------9~----|--3--5--7--10\--5--7--9--12\---5~-----9~--|
C|-------0------7-----|--x--x--x--x----x--x--x--x-----3------7~--|(x2)
G|-------0------7-----|--1--3--5--8\---3--5--7--10\---3------7~--|
C|-12\0~-0(x15)-7(x10)|-------------------------------3(x10)-7~--|

[Mark Solo]

D|-------------------------|----------------------|-22----------------------------------|
A|-15b~-17-18-17~-17p15-14~|----------------------|---20-18-20~-------------------------|
F|-------------------------|----------------------|-----------12b~-12-10----10b---------|
C|-------------------------|--------12-15\------12|-----------------------12~-----------|
G|-------------------------|--13-15--------13-15--|-------------------------------------|
C|-------------------------|----------------------|-------------------------------------|

D|-----------------------|-----------------------------------------|
A|-----------------------|--13b---------------13b------------------|
F|-----------------------|--12b-12p10--10-12--12b-12p10--10~-10-12-|
C|-------------0---0--0--|-----------12----------------12----------|
G|-5~--7~-8~-7~-7-5-4~-4~|-----------------------------------------|
C|---0~--------------0---|-----------------------------------------|

D|----------------------------------------------------------------------|
A|----------------------------------------13----------------------------|
F|-12h13p12p10--12h13p12p10--12h13p12p10----12~-12-10-------------10----|(All I could figure out atm sorry)
C|------------12-----------12-----------12-----------12-10--10-12---12~-|
G|--------------------------------------------------------12------------|
C|----------------------------------------------------------------------|


************************************

| x  Dead note
| ~  Vibrato
| \  Slide down
| h  Hammer-on
| p  Pull-off
| b  Bend
| /  Slide up
| TR Trill 

************************************
comments powered by Disqus
Наверх