Аккорды Alter Bridge - The Writing On The Wall

Добавлено: @romashka
Дата добавления: 05 Апреля 2018г.
Рейтинг:
0.0
Просмотров: 38
Транспонировать - +
[Intro]

Eb|--------------|--------------|-----------------------------------------------|     
Bb|--------------|--------------|-----------------------------------------------|     
Gb|--------------|--------------|-----------------------------------------------|(x3)    
Db|--------------|--------------|-----------------------------------------------|On the 4th time, play 
Ab|---14---------|---14---------|---14------------------------------------------|a single 13, then     
Bb|-12--12-11-12-|-12--12-11-12-|-12--12-11-12--12-12-13-13-13-13-10-10-10-10---|repeat the intro.     

(Rhythm guitar intro)Tremelo pick these parts
Eb|-14~-15~-12~-14~-15~-17~-14~-13~-10~-7~--|
Bb|-----------------------------------------|
Gb|-----------------------------------------|
Db|-----------------------------------------|
Ab|-----------------------------------------|
Bb|-----------------------------------------|


[Verse]

Eb|-----------------------------------|-----------------------------------|
Bb|-----------------------------------|-----------------------------------|
Gb|-----------------------------------|-----------------------------------|
Db|-----------------------------------|-----------------------------------|
Ab|-------------------0-0-0-0-3-3-3-3-|-------------------3-3-3-3-0-0-0-0-|
Bb|-0-0-3-1-0-0-3-1-0-----------------|-0-0-3-1-0-0-3-1-0-----------------|

Eb|-------------------------------|-----------------------------|
Bb|-------------------------------|-----------------------------|Note: The (*)
Gb|--------0~-----0~-------0~-----|----------------------4*-----|are squeals, thanks to Consolous for
Db|-------------------------------|-----------------------------|the suggestion!
Ab|-5-5-5~--5~--4~---4~---3~-3~---|--------------------------3*-|
Bb|-3-3-3~---3~-2~-----2~-1~---1~-|-0-0-3b-1-0--0-1b-0-0--------|


[Chorus]

Eb|-----------------------------------------|  |-----------------------|
Bb|-----------------------------------------|  |-----------------------|
Gb|----4/6-7/9-11/14------------------------|  |-----------------------| 
Db|-----------------------------------------|  |-----------------------|
Ab|----2/4-5/7-9/12--10-----5-----1-----2---|  |-2------5------3-------|
Bb|-0-0--------------8(x5)--3(x3)-3(x2)--0~-|  |-0(x14)-3(x10)-1(x10)--|

Eb|-----------------------------------------------------|
Bb|-----------------------------------------------------|
Gb|----11~-11/14-16/18-19-14~-14~-14/16\14-12-12-12-11~-|
Db|-----------------------------------------------------|
Ab|----9~--9/12--14/16-17-12~-12~-12/14\12-10-10-10-9~--|
Bb|-0-0-------------------------------------------------| 


[Bridge]

Eb|------------------------------|---------------------------|
Bb|-0h4-7h10--10h12-0h7-6h7p6-0~-|-0h4-7h10-10h12-7~-6h7p6-0~| (Not so sure about this either)
Gb|--------------------------7---|------------------------7--|
Db|------------------------------|---------------------------|
Ab|------------------------------|---------------------------|
Bb|------------------------------|---------------------------|

Eb|----------|
Bb|----------|
Gb|----------|
Db|----------|
Ab|----------|
Bb|-7-6-5-0~-|


************************************

| x   Dead note
| g   Grace note
| (n) Ghost note
| h   Hammer-on
| p   Pull-off
| r   Release
| >   Accented note
| t   Tapping
| b   Bend
| br  Bend release
| pb  Pre-bend
| pbr Pre-bend release
| /   Slide up
| \   Slide down
| ~   Vibrato
| s   Slap
| P   Pop
| PM  Palm mute
| TR  Trill
| N   Tremolo

************************************
comments powered by Disqus
Наверх