Аккорды Alter Bridge - Twilight

Добавлено: @romashka
Дата добавления: 05 Апреля 2018г.
Рейтинг:
0.0
Просмотров: 9
Транспонировать - +
[Intro] Strum this moderately quick (is that a thing?)  

[Guitar I]

D#|-2h3-3--2h3-3--2h3p2--2h3-3--|-2h3-3--2h3-3--3-3-3-3-3-3--|
A#|-3---3--3---3--3---3--3---3--|-3---3--3---3--3-3-3-3-3-3--|
F#|-2---2--2---2--2---2--2---2--|-2---2--2---2--2-2-2-2-2-2--|
C#|-0---0--0---0--0---0--0---0--|-0---0--0---0--0-0-0-0-0-0--|(x4)
G#|-----------------------------|----------------------------|
C#|-----------------------------|----------------------------|

[Guitar II]

D#|--------------------------------|-----------------------------------|
A#|-10p7h8--10p7h8--10p7h8--10p7h8-|-10p7h8--10p7h8--10-10-10-10-10-10-|
F#|--------------------------------|-----------------------------------|(x2)
C#|--------------------------------|-----------------------------------|
G#|--------------------------------|-----------------------------------|
C#|--------------------------------|-----------------------------------|


D#|------|-----------|-----------|-2h3-3--2h3-3--2h3-3--2h3-3--|-2h3-3--2h3-3--3-3-3-3-3-3-|
A#|------|-----------|-----------|-3---3--3---3--3---3--3---3--|-3---3--3---3--3-3-3-3-3-3-|
F#|------|-10-9-7-5~-|-10-9-7-5~-|-2---2--2---2--2---2--2---2--|-2---2--2---2--2-2-2-2-2-2-|
C#|------|-----------|-----------|-0---0--0---0--0---0--0---0--|-0---0--0---0--0-0-0-0-0-0-|
G#|------|-8--7-5-3~-|-8--7-5-3~-|-----------------------------|---------------------------|
C#|-12/0-|-----------|-----------|-----------------------------|---------------------------|



[Verse] Not 100% sure about this part, mainly the second shape

D#|-3-3-3-3-3-3-|-5-5-5-5-5-5-|-9--9--9--9--|-2h3-3--2h3-3--2h3-3--2h3-3--|-2h3-3--2h3-3--3-3-3-3-3-3-|
A#|-6-6-6-6-6-6-|-8-8-8-8-8-8-|-11-11-11-11-|-3---3--3---3--3---3--3---3--|-3---3--3---3--3-3-3-3-3-3-|
F#|-5-5-5-5-5-5-|-7-7-7-7-7-7-|-10-10-10-10-|-2---2--2---2--2---2--2---2--|-2---2--2---2--2-2-2-2-2-2-|
C#|-------------|-------------|-------------|-0---0--0---0--0---0--0---0--|-0---0--0---0--0-0-0-0-0-0-|
G#|-------------|-------------|-------------|-----------------------------|---------------------------|
C#|-------------|-------------|-------------|-----------------------------|---------------------------|



[Chorus]

D#|---------|-0-0-0-0-0-0-0-0-|-----------------|-------------|------|------|
A#|---------|-3-3-3-3-3-3-3-3-|-6-6-6-6-6-6-6-6-|-------------|------|------|
F#|---------|-2-2-2-2-2-2-2-2-|-5-5-5-5-5-5-5-5-|-------------|------|------|
C#|---------|-0-0-0-0-0-0-0-0-|-3-3-3-3-3-3-3-3-|-2-2-2-2-2-2-|-8-8~-|-7-7~-|(x2)
G#|---------|-0-0-0-0-0-0-0-0-|-3-3-3-3-3-3-3-3-|-3-3-3-3-3-3-|-8-8~-|-7-7~-|
C#|-5~-3~-2~|-0-0-0-0-0-0-0-0-|-3-3-3-3-3-3-3-3-|-2-2-2-2-2-2-|-8-8~-|-7-7~-|

[Repeat Guitar II Intro]
[Repeat Verse]
[Repeat Chorus]

For the Chorus before the bridge end on:
D#|-------------|-----|
A#|-------------|-----|
F#|-------------|-----|
C#|-3-3-3-3-3-3-|-5~--|
G#|-3-3-3-3-3-3-|-3~--|
C#|-3-3-3-3-3-3-|-2~--|

[Bridge]

D#|--------------|          |----------------| |-------------------|
A#|--------------|          |----------------| |-------------------|
F#|-7-7-9h10p9-7-|(repeat   |-9-9-10h12p10-9-| |-11-11-12h14p12-11-|
C#|--------------| several  |----------------| |-------------------|
G#|--------------| times)   |----------------| |-------------------|
C#|--------------|          |----------------| |-------------------|

"The tyrants will rage..."
D#|----------|----------|--------------|2-2-2-2~-|
A#|----------|----------|--------------|3-3-3-3~-|
F#|----------|----------|--------------|2-2-2-2~-|
C#|-8-8-8-8~-|-3-3-3-3~-|-10-10-10-10~-|0-0-0-0~-| (x2)
G#|-8-8-8-8~-|-3-3-3-3~-|-10-10-10-10~-|0-0-0-0~-|
C#|-8-8-8-8~-|-3-3-3-3~-|-10-10-10-10~-|0-0-0-0~-|

I do have part of the solo written down, but once I can figure the rest of it out I'll edit it in. :)
[Solo Rhythm]

D#|-------------|-------------|-------------|-2-2-2-2-2-2--|
A#|-------------|-------------|-------------|-3-3-3-3-3-3--|
F#|-------------|-------------|-------------|-2-2-2-2-2-2--|
C#|-8-8-8-8-8-8-|-3-3-3-3-3-3-|-5-5-5-5-5-5-|-0-0-0-0-0-0--| (x3)
G#|-8-8-8-8-8-8-|-3-3-3-3-3-3-|-3-3-3-3-3-3-|-0-0-0-0-0-0--|
C#|-8-8-8-8-8-8-|-3-3-3-3-3-3-|-2-2-2-2-2-2-|-0-0-0-0-0-0--|

(Tried my best with this bit)
D#|-------------|---------------|-----------------------------------------------------------------------|
A#|-------------|---------------|-----------------------------------------------------------------------|
F#|-------------|---------------|-----------------------------------------------------------------------|
C#|-8-8-8-8-8-8-|-3-3-3-3-3-3-3-|-----------------------------------------------------------------------|
G#|-8-8-8-8-8-8-|-3-3-3-3-3-3-3-|----7h8p7-0~---7h8p7----8h10p8-7~----8h10p8-7~-------------------------|
C#|-8-8-8-8-8-8-|-3-3-3-3-3-3-3-|-0h8--------0h8-----0h10---------0h10----------0h8-8-8-8-8h10-10-10-10-|

[Repeat Chorus twice]


End on:
D#|-------------|-----|
A#|-------------|-----|
F#|-------------|-----|
C#|-3-3-3-3-3-3-|-5~--|
G#|-3-3-3-3-3-3-|-3~--|
C#|-3-3-3-3-3-3-|-2~--|


************************************

| x   Dead note
| g   Grace note
| (n) Ghost note
| h   Hammer-on
| p   Pull-off
| r   Release
| >   Accented note
| t   Tapping
| b   Bend
| br  Bend release
| pb  Pre-bend
| pbr Pre-bend release
| /   Slide up
| \   Slide down
| ~   Vibrato
| s   Slap
| P   Pop
| PM  Palm mute
| TR  Trill
| N   Tremolo

************************************
comments powered by Disqus
Наверх