Аккорды «Alter Bridge»

Alter Bridge
Alter Bridge — рок-группа из Орландо, Флорида, США. После распада Creed в 2004 году гитарист Марк Тремонти и ударник Скотт Филлипс решили поиграть вместе и обнаружили, что имеют общие рок-н-ролльные корни. Тремонти надоело играть одну и ту же музыку, которую он играл в Creed, и он решил попробовать себя в чём-то новом. Вскоре к Тремонти и Филлипсу присоединились Майлс Кеннеди (экс-фронтмен The Mayfield Four), а также старый знакомый Марка и Скотта по Creed — басист Брайан Маршалл. Первый альбом… Читать полностью... Alter Bridge — рок-группа из Орландо, Флорида, США. После распада Creed в 2004 году гитарист Марк Тремонти и ударник Скотт Филлипс решили поиграть вместе и обнаружили, что имеют общие рок-н-ролльные корни. Тремонти надоело играть одну и ту же музыку, которую он играл в Creed, и он решил попробовать себя в чём-то новом. Вскоре к Тремонти и Филлипсу присоединились Майлс Кеннеди (экс-фронтмен The Mayfield Four), а также старый знакомый Марка и Скотта по Creed — басист Брайан Маршалл. Первый альбом «One Day Remains» вышел в свет 10 августа 2004 года. Были сняты клипы на песни «Open Your Eyes» и «Broken Wings». Альбом был записан на лейбле Wind-Up. Сам лейбл (на котором также выходили альбомы Creed и сольник Скотта Стэппа "The Great Divide") настаивал на возрождении Creed. Поэтому вскоре Alter Bridge перешли под крыло Universal Republic. 9 октября 2007 года выходит второй альбом Alter Bridge под названием «Blackbird». 12 сентября 2009 года вышел первый официальный Live DVD Alter Bridge «Live from Amsterdam». 1 февраля 2010 года Майлс Кеннеди объявил о том, что вскоре он займётся своим сольным альбомом. Марк Тремонти также примет участие в сольном проекте Кеннеди. В первой половине 2010 г. был записан альбом AB III. Далее последовал контракт с Roadrunner Records. Диск вышел осенью 2010 г. и дебютировал на 17-й строчке Billboard 200. Новый материал получился мрачным по сравнению с предыдущими работами группы. Далее последовали неплохие гастроли и выступления на различных фестивалях. Концерт на стадионе Уэмбли в ноябре 2011 г. был заснят на видео и выпущен на DVD Live at Wembley в марте 2012 г. Выход альбома Fortress состоялся 30 сентября 2013, но перед этим 23 сентября была проведена радио-трансляция всей записи на сайте Metal Hammer. В США альбом вышел 8 октября, чему предшествовало единственное выступление в Орландо 4 октября. Затем группа отправилась в тур по Великобритании и Европе с группами Halestorm и Shinedown. Сотрудничество с новым продюсером Майклом Баскеттом спровоцировало группу на создание тяжелейших в своей истории песен. С особым наваждением к этой идее подошли Марк Тремонти и Майлз Кеннеди. Тремонти заявил в своем пресс-релизе: «Когда мы работаем над альбомом, мы подталкивали друг друга на то, чтобы сделать что-то особенное. Мы хотели, чтобы этот альбом получился самым непредсказуемым и захватывающим». Всем не понаслышке известно тяжелое, но мелодичное звучание группы. Музыка, включающая множество жанров, таких как рок, хард-рок, альтернативный метал, пост-гранж, прогрессив и хэви-метал. В первых двух альбомах тексты в основном затрагивают надежды, сожаления, печали и преодоления , боль и наркоманию. А вот 3-й альбом — это скорее борьба за веру. О названии альбома Майлз Кеннеди сказал, что слово "Fortress" (крепость - англ.) звучит очень сильно. "Когда вы его слышите, то представляете сложную структуру вещей, которые вы считали неприкосновенными, вечными, способными защитить вас, словно крепость. Эта песня о том, как эти вещи вокруг вас разрушаются, об эмоциях, связанных с разочарованием. Addicted To Pain- первый сингл альбома, к которому Дэном Катулло был снят клип. Состав группы: Майлс Кеннеди (Myles Kennedy) — вокал, ритм-гитара Марк Тремонти (Mark Tremonti) — гитара, бэк-вокал Брайан Маршалл (Brian Marshall) — бас-гитара Скотт Филлипс (Scott Phillips) — ударные Скрыть...
Популярные аккорды Alter Bridge:
алфавиту | просмотрам | случайно
  • Tuning: D tuning lowered half step (Db Ab Db Gb Bb Eb)
    
    Intro                               2x
    
    e|------------------------------------|
    B|------------------------------------|
    G|------------------------------------|
    D|--5p2p0h2-0-0--5p2p0h2-0-0--5p0h2p0-|
    A|--5p2p0h2-0-0--5p2p0h2-0-0--5p0h2p0-|
    D|--5p2p0h2-0-0--5p2p0h2-0-0--5p0h2p0-|
    
    
    e|------------------------------------|
    B|------------------------------------|
    G|------------------------------------|
    D|--5p2p0h2-0-0--5p2p0h2-0-0--3-3-3-3-|
    A|--5p2p0h2-0-0--5p2p0h2-0-0--3-3-3-3-|
    D|--5p2p0h2-0-0--5p2p0h2-0-0--3-3-3-3-|
    
    
    Verse…
  • Verse 1:
    A       
    Drank so much last night
                   G
    I think that I drowned 
                      E
    But now my cup is empty 
    A                       G
    No one has seen my will around
                    E
    Now my…
  • G/Bb  =  320002
    C5    =  X355XX
    G5    =  XXX033  
    
    Intro:  Gadd9  Cadd9  (X2)
    
    Verse 1:
    
    Gadd9           Cadd9   
         Leaves are on the ground 
    Gadd9         Cadd9   
         Fall has come 
    Gadd9           Cadd9…
  • Am
    Against the sky
    C
    Streams of light
    C           F      Am
    Call out to me and you
    Am
    We leave as one
    F
    We've just begun
    C           G            Am
    To find the solace we're due
    C            G            Am
    This…
  • Tuning: Open G tuning DBDGBD
    
    Intro:
    
    |---------------------------12--10---------------------------------------|
    |----12------13------10-------------12----8-------7-------3h5------3-----|
    |-------0-------0-------0--------------------0-------0---------0------0--|
    |------------------------------------------------------------------------|
    |----12------12------11-----11--11--11----9-------9-------5--------5-----|
    |------------------------------------------------------------------------|
    
    Then,
    
    
    |-----------------------------12--10--------------------------|
    |----12------13------10---12------------12----8-------7-------|
    |-------0-------0---------------------------------0-------0---|
    |-------------------------------------------------------------|
    |----12------12------11---11---11--11--11-----9-------9-------|
    |-------------------------------------------------------------|
    
    |----------------------------------|
    |---3h5------3h5--------3h5--------|
    |--------0---------0---------------|
    |----------------------------------|
    |---5--------5----------5----------|
    |----------------------------------|
    
    Repeat…
  • Tuning:       5 string standard
    
    [Intro]
    
    G|-----------------|-------------------|---------------------|---------------------|
    D|-----------------|-------------------|---------------------|---------------------|
    A|-----------------|-------------------|---------------------|---------------------|
    E|-3---3-3-3--3--3-|-2---2-2--2--2--2--|---------------------|---------------------|
    B|-----------------|-------------------|-5---5-5-5-4---4-4-4-|-2---2-2-2-0---0-0-0-|
    
    
    G|------------------|------------------|------------------|-------------------|
    D|------------------|------------------|------------------|-------------------|
    A|-5---5-5-5--5--5--|------------------|------------------|-------------------|
    E|------------------|-5---5-5-5--5--5--|-3---3-3-3--3--3--|-2---2-2--2--2--2--|
    B|------------------|------------------|------------------|-------------------|
    
    G|------------------|------------------|----------------------------|
    D|------------------|------------------|----------------------------|
    A|------------------|------------------|----------------------------|
    E|------------------|------------------|----------------------------|
    B|-5-----5--4-----4-|-2-----2--0-----0-|-3--------------------------|
    
    
    
    [Verse]…
  • Tuning: All strings down half step
    
    Intro
    gtr1
    eb|--------------------|
    bb|--------------------|
    gb|--------------------|
    Db|-------------*7-----|
    Ab|-0-*12-*5--*7-------|
    Eb|--------------------|
    
    drums kick…
  • [Intro] Strum this moderately quick (is that a thing?)  
    
    [Guitar I]
    
    D#|-2h3-3--2h3-3--2h3p2--2h3-3--|-2h3-3--2h3-3--3-3-3-3-3-3--|
    A#|-3---3--3---3--3---3--3---3--|-3---3--3---3--3-3-3-3-3-3--|
    F#|-2---2--2---2--2---2--2---2--|-2---2--2---2--2-2-2-2-2-2--|
    C#|-0---0--0---0--0---0--0---0--|-0---0--0---0--0-0-0-0-0-0--|(x4)
    G#|-----------------------------|----------------------------|
    C#|-----------------------------|----------------------------|
    
    [Guitar…
  • Tuning (Lowest to Highest): Db Ab Db Gb Bb eb
    Lead Guitar in standard half step
    
    Intro
    -----
    eb|----------------------------------------------------------|
    Bb|----------------------------------------------------------|
    Gb|----------------------------------------------------------|
    Db|--------------------------------------------------3*~~----|
    Ab|-12\-0---5-4-3---------3-0-5--3-----------3---3-5---------|
    Db|-12\-0-0-------7-6~~-0-3-0-5----3~~-0-3-5---5-------------|…
  • Tuning- Low to high DADADD
    
    Intro
    |--------------------------------------------------------------|
    |--------------------------------------------------------------|
    |--------------------------------------------------------------|
    |-7/9-9-7-0-5-5--7/9-9-7-9-0-5-5--7/9-9-7-0-5-5--5/7-7-4-4-5-5-|
    |-7/9-9-7-0-5-5--7/9-9-7-9-0-5-5--7/9-9-7-0-5-5--5/7-7-4-4-5-5-|
    |-7/9-9-7-0-5-5--7/9-9-7-9-0-5-5--7/9-9-7-0-5-5--5/7-7-4-4-5-5-|
    
    Verse
    |-0---5------------------------------|
    |-0---5------------------------------|
    |-4---5------------------------------|
    |-4---5-5--7/9-9-7-0-5--7/9-9-7-0-12-|
    |-2---5-5--7/9-9-7-0-5--7/9-9-7-0-12-|
    |-----5-5--7/9-9-7-0-5--7/9-9-7-0-12-|
    
    |-0--5---------------------------------|
    |-0--5---------------------------------|
    |-4--5---------------------------------|
    |-4--5-5--7/9-9-7-0-12-12--5/7-7-4-5-5-|
    |-2--5-5--7/9-9-7-0-12-12--5/7-7-4-5-5-|
    |----5-5--7/9-9-7-0-12-12--5/7-7-4-5-5-|
    
    |-0--5---------0--5-|
    |-0--5---5/7\5-0--5-|
    |-4--5---------4--5-|
    |-4--5-0-------4--5-|
    |-2--5-0-------2--5-|
    |----5-0----------5-|
    
    Chorus(Not…
  • Guitar with standard tuning: Capo 1
    Guitar tuned 1/2 step down : Capo 2
    
    G            D              A    
      I couldn't sleep I had to listen
    G      D                  A      
      To a conscience knowing so well
    G…
  • [Intro]
    
       Myles                             
    D|-----------|-----------|-------------|--------------------|
    A|-----------|-----------|-------------|--------------------|
    F|-7---------|-6---------|--5----------|-4------------------|
    C|-x---------|-x---------|--x----------|-x-------0-8-7-5-0~-|
    G|-5(x14)----|-4(x16)----|--3-(x16)----|-2(x12)--0-8-7-5-0~-|
    C|-----------|-----------|-------------|---------0-8-7-5-0~-|…
  • Tuning: Drop Db (Db Ab Db Gb Bb Eb)
    
    Drum Intro for almost 3 bars then,
    
    Verse 1 Riff: 2 Guitars - Heavy Distortion (continue to PM as shown in 2nd bar below)
    
    Eb|------|--PM----------PM-------------|----------|-----------------------------|-------------|
    Bb|------|-----------------------------|----------|-----------------------------|-------------|
    Gb|------|-----------------------------|----------|-----------------------------|-------------|
    Db|------|-----------------------------|--0s------|------------------------PH---|--0s---------|
    Ab|-/9\--|--0-2--4-2----0-2--4-2----1--|--0s------|--0-2--4-2----0-2--4-2--*1---|--0s-----9\--|
    Db|-/9\--|--0-2--4-2----0-2--4-2----1--|--0s------|--0-2--4-2----0-2--4-2-------|--0s---------|
    
    Eb|-----------------------------|-------{NH-----------}---|-----------------------------|
    Bb|-----------------------------|-------------------------|-----------------------------|
    Gb|-----------------------------|-------------------------|-----------------------------|
    Db|-----------------------------|--0s---------------------|-----------------------------|
    Ab|--0-2--4-2----0-2--4-2----1--|--0s---7-7-7-7-----------|--0-2--4-2----0-2--4-2----1--|
    Db|--0-2--4-2----0-2--4-2----1--|--0s----------5-5-7-7----|--0-2--4-2----0-2--4-2----1--|
    
    PreChorus
    Eb|-----------------------------|-----------------------------|-----------------------------|
    Bb|-----------------------------|-----------------------------|-----------------------------|
    Gb|----7--9-7------2--4-2-------|-----------------------------|----7--9-7------2--4-2-------|
    Db|----7--9-7------2--4-2-------|-----------------------------|----7--9-7------2--4-2-------|
    Ab|--0-5--7-5----0-0--2-0----5--|--0-2--4-2----0-2--4-2----1--|--0-5--7-5----0-0--2-0----5--|
    Db|--0-----------0-----------5--|--0-2--4-2----0-2--4-2----1--|--0-----------0-----------5--|
    
    Eb|----------------------------PM.........-|
    Bb|----------------------------------------|
    Gb|----------------------------------------|
    Db|----------------------------------------|
    Ab|--0-2---4-2----0-2---4-2----------------|
    Db|--0-2---4-2----0-2---4-2----5-4-2-6-4-2-|
    
    
    Chorus…
  • Tune: A#-G#-C#-F#-A#-D# or Bb-Ab-Db-Gb-Bb-Eb, like Broken Wings
    
    (Taken from the guitar pro file, I take no credit for this.
    It was hard as hell to align the two guitar parts therefore
    one guitar is missing in a couple…
  • [Intro]
    
    Eb|--------------|--------------|-----------------------------------------------|     
    Bb|--------------|--------------|-----------------------------------------------|     
    Gb|--------------|--------------|-----------------------------------------------|(x3)…
  • [Intro] 
    
    C#|---------------------------------------------------------------------------|
    G#|---------------------------------------------------------------------------|
    E |------------------2-2----------------------2-4p2-2-------------------------|(x2)
    B…
  • Intro - played 3x 
    
       Guitar 1 - Acoustic
    
    eb|-0----0----0-0-0----0-0-|-0----0----0-0-0----0-0-|
    Bb|-0----0----0-0-0----0-0-|-0----0----0-0-0----0-0-|
    Gb|-4----4----4-4-3----3-3-|-4----4----4-4-2----2-2-|
    Db|-4----4----4-4-4----4-4-|-4----4----4-4-4----4-4-|
    Ab|-x----x----x-x-x----x-x-|------------------------|
    Db|-4----4----4-4-4----4-4-|-0----0----0-0-0----0-0-|
    
    1…
  • ORIGINAL: CAPO 4
    
    [Tab] [Intro(D G)]
         D                      G
    E |------------------0------|---------------3------------|
    B |-------3------3-----3--3-|-----3-----3-----3---3------|
    G |-----2------2---2----2---|---0-----0---0-----0--------|
    D…
  • Intro/Verse Part 1 - played 2x
    
        Acoustic #1
    eb|-------------------|-------------------|
    Bb|-3------------3----|-3-----------------|
    Gb|-----2--0h2--------|-------------------|
    Db|-0--0--0--0--0--0--|-0--0--0--0--0--0--|
    Ab|-------------------|-------------------|
    Db|-------------------|-------------------|
    
    Note…
  • Verse
    * Signifies natural harmonic                  
    Eb|---------0--------------------------------0----------------------------------|
    Bb|-15-------------15p13-------------13------------------------8----------------|
    Gb|------------------------0---------------------------0h10----------12/11------|
    Db|-------------------------------------------------------------------------0---|
    Ab|-----------------------------------------------------------------------------|
    Db|-15---15---15---15---15---15/14---14---14---14/10---10---10---10---0---0---0-|
    
    ------------------------------------|
    --10----------10--------------------|
    ------12------------------7*--------|
    --------------------------------7*--|
    ------------------------------------|
    --0---0---0---0---0---0---0---0---0-|
    
    
    2nd…
  • [Intro 1]
    E F B7omit5 E
    
    [Intro 2]
    Asus2 F B7omit5 E
    A F B7omit5 E
    
    [Verse 1]
                   Asus2            C
    Well, they're selling another Messiah
            F     
    Here tonight
              Asus2…
  • Pre Verse
    
    Eb|-------------------------------------------------------------------------|
    Bb|-------------------------------------------------------------------------|
    Gb|-------------------------------------------------------------------------|
    Db|-------------------------------------------------------------------------|
    Ab|------------------8--------------------7--------------------6------------|
    Db|---0---0---0h7h10---0---0---0---0h7h10---0---0---0---0h7h10---0---0---0--|
    
    ---------------------------------|
    ---------------------------------|
    ---------------------------------|
    ---------------------------------|
    ---------10-------12p10----------|
    -0h10h13----13p10-------13p12p10-|
    
    
    Verse…
  • Drop Db tuning
    
    Verse Chords for Guitar 2: Asus2 |-1331-| , Gbsus4 |5-553-| , Db5 |-0023-|
    
    Intro: Guitar 1 - Heavy Distortion
                triplet
    Eb|------------------------------------------|-----------------------------------------|
    Bb|------------------------------------------|-----------------------------------------|
    Gb|------------------------------------------|-----------------------------------------|
    Db|------------------------------------------|-----------------------------------------|
    Ab|------------------------------------------|-----------------------------------------|
    Db|--0--0--0--000--15-0-13-0-10p0-15-12tr13--|--0--0--0--000--13-0-12-0-10p0-13-12tr13-|
    
    1st…
  • Fade In Intro - repeated with light flanger
    eb|---------------------------|
    Bb|---------------------------|
    Gb|----7NH---7NH---7NH---7NH--|
    Db|--0-----0-----0-----0------|
    Ab|---------------------------|
    Db|---------------------------|
    
    
    Main…
  • Tempo = 150
    Steel Guitar
    
    
    
    D |----|----------------------|----------------------|----------------------|
    B |----|-----------0----------|-----------1----------|-----------3----------|
    G |----|--0-----------0-------|--2-----------2-------|--4-----------4-------|
    D…
  • Capo 1
    
    
    All Hope is Gone
    
            Am              D
    A tireless dream of indifference flows
              C              G          Am
    through veins 'till the river runs dry
            Am                D
    I no longer…
  • Tuning: C# G# C# F# A# D# (Drop C#)
    
      VERSE:
    
      Tell me how it feels to live a lie...Tell me do you know that it won't ever be the same
    
        C#5                                 E5
    e|----------------------------------------------------------------------------------------|
    B|----------------------------------------------------------------------------------------|
    G|--7----------------------------------10-------------------------------------------------|
    D|--7----------------------------------10-------------------------------------------------|
    A|--5----------------------------------8--------------------------------------------------|
    E|----------------------------------------------------------------------------------------|…
  • G            D
    The misery I know
           C                     G
    Like a friend that won't let go
       G              D            G
    Is creeping up on me now once again
    
         G                D
    So I sing this song tonight…
  • Drop B tuning (B A D G B E)
    
    Intro Riff w/ distortion & flanger (set to about 1/2 sec regen rate)
    E--2---2-2---2-|-2---2-2---2--|--3---3-3---3-|-0---0-0---0--|--2---2-2---2-|
    B--0---0-0---0-|-0---0-0---0--|--0---0-0---0-|-0---0-0---0--|--0---0-0---0-|
    G----4-----4---|---4-----4----|----2-----2---|---2-----2----|----0-----0---|
    D--------------|--------------|--------------|--------------|--------------|
    A--------------|--------------|--------------|--------------|--------------|
    B--------------|--------------|--------------|--------------|--------------|
    
    E-2---2-2---2-|--0---0-0---0-|-2---2--0---0----|
    B-0---0-0---0-|--0---0-0---0-|-3---3--2---2---o|
    G---0-----0---|--------------|---0------0------|
    D-------------|----2-----2---|-----------------|
    A-------------|--------------|----------------o|
    B-------------|--------------|-----------------|
    
    Guitar…
  • [tuning half step down]
    
      C# -9
    
    -| e a d g b e     
    1| - - - - - -
    2| - - 2 - - -
    3| - - - - 3 -
    4| - 4 - - - -
    5| - - - - - - 
    
      Dsus4
    
    -| e a d g b e
    1| - - - - - -
    2| 2 - - - - -
    3| - - - - 3 3
    4|…
  • Db|----------------|---------------|---------------|---------------|
    Db|----------------|---------------|---------------|---------------|
    Ab|----12-----12---|---12-----12---|---12-----12---|---12-----12---|
    Db|--0----0-0----0-|-0----0-0----0-|-0----0-0----0-|-0----0-0----0-|
    Ab|----------------|---------------|---------------|---------------|
    Db|----------------|---------------|---------------|---------------|
    
    |-------------------|-------------------|-------------------|
    |-------------------|-------------------|-------------------|
    |-----12------12----|-----12------12----|-----12------12----|
    |----------0------0-|----------0------0-|----------0------0-|
    |--13---13----------|--13---13----------|--12---12----------|
    |-------------------|-------------------|-------------------|
    
    |-------------------|
    |-------------------|
    |-----12------12----|
    |----------0------0-|
    |-------------------|
    |--10---10----------|…
  • Gtr I (E A D G B E) - 'Lead (dist.) - Mark Tremonti'
    Gtr II (E A D G B E) - 'Rythem (dist.) - Myles Kennedy'
    Gtr III (E A D G B E) - 'Rythem (acous.) - Myles Kennedy'
    
    
        Q=145
       4/4
        Gtr I
        PM------------------------------------------------------|…
  • e|-----------------------------------|--------------------------------------|
    B|-----------------------------------|--------------------------------------|
    G|-----------8-6-----6---------------|--------------------------------------|
    D|---------------8-6------8-6-----6~~|------6~~----8-6------6----------11---|
    A|----------------------------9-8----|---9-------9------9-8----9-8-6-8-9----|
    D|-----------------------------------|--------------------------------------|
    
    ~~vibrato…
  • Intro play 4x
    eb|------------------------------------------|-----------------------------|
    Bb|------------------------------------------|-----------------------------|
    Gb|------------------------------------------|-----------------------------|
    Db|------------------------------------------|-9-9-9-9---------------------|
    Ab|-15-15-----15-15-----15-15-------15-15----|-7-7-7-6---10-10-10----------|
    Bb|------0-0-------0-0---------0-0-------0-0-|-----------13-13-13\12-------|…
  • The guitars are tuned half step down
    
    The acoustic beginning by Priad-Luabe
    
    eb|-----------------|-----------------|
    Bb|-----7---8-7-----|-----7---8-7-----|
    Gb|---9---9-----9---|---9---9-----9---|
    Db|-9-------------9-|-9-------------9-|
    Ab|-----------------|-----------------|
    Eb|-----------------|-----------------|
    
    eb|-----------------|-----------------|
    Bb|-----7---8-7-----|-----7---8-7-----|
    Gb|---8---8-----8---|---8---8-----8---|
    Db|-9-------------9-|-9-------------9-|
    Ab|-----------------|-----------------|
    Eb|-----------------|-----------------|
    
    eb|---------5-0-----|---------5-0-----|
    Bb|-----0-------0---|-----0-------0---|
    Gb|-----------------|-----------------|
    Db|---7---7---------|---7---7---------|
    Ab|-5-------------5-|-5-------------5-|
    Eb|-----------------|-----------------|
    
    eb|---------5-0-----|---------7-5-0---|
    Bb|-----0-------0---|-----0-----------|
    Gb|-----------------|-----------------|
    Db|---7---7---------|---7---7---------|
    Ab|-4-------------4-|-4-------------4-|
    Eb|-----------------|-----------------|
    
    eb|---------3-0-----|---------5-3-0---|
    Bb|-----0-------0---|-----0-----------|
    Gb|-----------------|-----------------|
    Db|---5---5---------|---5---5---------|
    Ab|-3-------------3-|-3-------------3-|
    Eb|-----------------|-----------------|
    
    eb|---------3-0-----|---------3-0-----|
    Bb|-----0-------0---|-----0-------0---|
    Gb|-----------------|-----------------|
    Db|---5---5---------|---5---5---------|
    Ab|-2-------------2-|-2-------------2-|
    Eb|-----------------|-----------------|
    
    eb|---------3-0-----|---------3-0-----|
    Bb|-----0-------0---|-----0-------0---|
    Gb|-----------------|-----------------|
    Db|---4---4---------|---4---4---------|
    Ab|-2-------------2-|-2-------------2-|
    Eb|-----------------|-----------------|
    
    eb|-----------------|-----------------|
    Bb|---------7-4-----|---------7-4-----|
    Gb|-----4-------4---|-----4-------4---|
    Db|---4---4---------|---4---4---------|
    Ab|-6-------------6-|-6-------------6-|
    Eb|-----------------|-----------------|
    
    Light…
  • Guitar 2 Chords:
    Db  |0 0 0 11 x x|
    
    Intro - Heavy Distortion (play through 2x)
       Guitar 1                                                 
    Eb|------------------|--------------------|------------------|---------------------------|
    Bb|------------------|--------------------|------------------|---------------------------|
    Gb|------------------|--11----------12-14-|-----------12-12--|---------------------------|
    Db|---10---------3-3-|--0-----------10-10-|---10------10-10\-|-------------------------0-|
    Ab|---8----------3-3-|--0-----------10-10-|---8-------10-10\-|----5p0---5~---5p0---5~--0-|
    Db|---8----------3-3-|--0-----------10-10-|---8-------10-10\-|--0-----0----0-----0-----0-|…
  • Tuning - Drop Db
    
    Intro/Verse Riff - Guitar 1, with phaser
    eb|-------------0----------|
    Bb|----3-----3-----3-----3-|
    Gb|-5-----5-----------5----|
    Db|------------------------|
    Ab|------------------------|
    Db|------------------------|
    
    
    I…
  • order of parts: 1,2,3,2,3,4,1,2,3,4,5,4,6
    key:
    s= slide
    v= vibrato
    h= hammeron
    pt1:
    
    E|---------------------------------------------------------------------------|
    B|--10-8--8---------10-9---------5-6-7---------------------3-4---------------|
    G|-7-----6---------7-----6---5-7---------2-4-5s3--321-----2------------------|
    D|----------------------------------------------------321--------------------|
    A|------------------------------------------------------2--------------------|
    E|---------------------------------------------------------------------------|
    
    
    pt2:…
  • Tuning: Guitar 1 Drop-D lowered by 1 fret
            Guitar 2 Double Drop D lowered 1 fret (DbAbDbGbBbDb)
    
    Intro
        Guitar 1              play bar 2x
    eb|---------------||------------------------------------------------|
    Bb|---------------||------------------------------------------------|
    Gb|-4-4-4-6-6-6-7-||----------------------------------4-4-4-6-6-6-7-|
    Db|---------------||------------------------------------------------|
    Ab|-2-2-2-4-4-4-5-||-0--------------------------------2-2-2-4-4-4-5-|
    Db|---------------||-0----------------------------------------------|…
  • Acoustic Intro
    
    Eb|-------------|   <---
    Bb|-------0---1-|     |
    Gb|---2---2---2-| x4  |
    Db|-----2---2---|     |
    Ab|-0-----------|     |
    Eb|-------------|     |
                          | 
    Eb|-------------|     |
    Bb|---0---0---3-|…
  • F#m 
    [ch]C#/F[/ch]  
    E 
     
      
         F#m 
    The willow it weeps today
       E
    A breeze from a distance
     A               E/G#
    Is calling your name
     F#m
    Unfurl your black wings and wait
    
     E            A
    Across the horizons…
  • [Mark Intro]
    
    D#|-------------------------------------------------------------------------------|
    A#|-------------------------------------------------------------------------------|
    F#|-------------------------------------------------------------------------------|
    C#|-------------------------------------------------------------------------------|
    G#|-------------------------------------------------------------------------------|(Then…
  • [Intro]
    D#|-------------------------------------------------------------7-7-7-7----|      
    A#|---5p4-5p4-4-4-4-4-5p4-5h7-7-7-7-5p4-5p4-5p4-4-4-4-4-5p4-5p4------------|
    F#|---4---4---4-4-4-4-4---4---4-4-4-4---4---4---4-4-4-4-4---4---4-4-4-4----|
    C#|------------------------------------------------------------------------|
    G#|------------------------------------------------------------------------|
    A#|------------------------------------------------------------------------|
    
    D#|-------------------------------------------------------------7--7--7--7----|…
  • Gm                               Eb
    eb|---17\------------15\-----------|---------------------------------------------------||
    Bb|--------13---15--------11---13--|13b14r13-11----------------------------------------||
    Gb|-0PM--0PM--0PM--0PM--0PM--0PM-0PM-------------12-------\7---5b6r5-------------------||
    Db|--------------------------------|-----------------------------------8---5-----------||
    Ab|--------------------------------|-------------------------------------------3PHb4r3-||
    Db|--------------------------------|---------------------------------------------------||…
  • Tuning - Bb Ab Db Gb Bb Eb, low to high
    
    Intro - 0:08
    |-------2-2-2-2-2-2-2-2-2-|-2-2-2-2-2-2-2-2-2-2-2-2-|
    |-0-0-0-0-0-0-0-0-0-0-0-0-|-0-0-0-0-0-0-0-0-0-0-0-0-|
    |-------------------------|-------------------------|
    |-------------------------|-------------------------|
    |-------------------------|-------------------------|
    |-------------------------|-------------------------|
    
    |-3-3-3-3-3-3-3-3-3-3-3-3-|-------------------------|
    |-0-0-0-0-0-0-0-0-0-0-0-0-|-------------------------|
    |-------------------------|-------------------------|
    |-------------------------|-------------------------|
    |-------------------------|-------------------------|
    |-------------------------|-0--5--4--1b3------------|
    
    
    
    Pre-Verse…
  • Eb|------------------------------------------------------------------------|
    Bb|------------------------------------------------------------------------|
    Gb|------9---10--9-10-9------------------------9--10--12-10-9-10*-12-9-x---|
    Db|--/10---10-------------10-10-(10)=b12r10-10--10-------------------------|
    Ab|---------Don't…
  • Intro
    ^ Signifies palm mute/metal gallop
    
    Eb|---------------------------------------------------------------------------|
    Bb|---------------------------------------------------------------------------|
    Gb|---------------------------------------------------------------------------|
    Db|---------------------------------------------------------------------------|
    Ab|-------------------------875-75--5--------------------------------87567b11-|
    Eb|-4-00-3-0-00-4-00-3-00-0----8--87-875-4-00-3-0-00-4-00-3-00-0-0-0----------|…
  • [Intro]
    (strum to tempo; you'll have to listen to the song to hear the tempo)
    D|---------------------------------------------------------------------------|
    A|------------------------------------3--5-----------------------------------|
    F|-2--------------5-4-2---------5---------5----0---2-------------------------|
    C|---------------------------------------------------------------------------|
    G|---------------------------------------------------------------------------|
    C|---------------------------------------------------------------------------|
    same…
  • Tuning - C# G# C# F# A# D#
    
    Intro
    
    
    Guitar 1: Mark                   Guitar 2: Myles with Phaser
    
    D#|-----------------0-| x5         D#|-------------------|
    A#|-----------------3-|            A#|-10b11-12b13-13b14-|
    F#|-3/4-4-4-6-6-6-7-2-|…
  • Tuning: Drop C (C G C F A D)
    
    Intro:
    
    D|------------------------------------------------|
    A|------------------------------------------------|
    F|------------------------------------------------|
    C|---0--------------------------------------------|
    G|---0--3-----------3------5--------------7-------|
    C|---0----0-2-3-4----3-4---0-5-6-7-------9--10----|…
  • [Intro]
    
         Em                         Emadd9                        Esus4
    Eb|--------------------------------------------------------------------------------------------------------|
    Bb|--------8-----8-----8-----8-----7-----7-----7-----7-----10-----10-----10-----10-----8-----8-----8-------|
    Gb|----9-----9-----9-----9-----9-----9-----9-----9-----9------9------9------9------9-----9-----9-----9-----|
    Db|------9-----9-----9-----9-----9-----9-----9-----9-----9------9------9------9------9-----9-----9-----9---|
    Ab|--------------------------------------------------------------------------------------------------------|
    Eb|--0-----0-----0-----0-----0-----0-----0-----0-----0-----0------0------0------0------0-----0-----0-------|
    
    
    
    [Verse…
Наверх