Аккорды Alter Bridge - Crows On A Wire

Добавлено: @romashka
Дата добавления: 05 Апреля 2018г.
Рейтинг:
0.0
Просмотров: 12
Транспонировать - +
Tuning: Drop C (C G C F A D)

Intro:

D|------------------------------------------------|
A|------------------------------------------------|
F|------------------------------------------------|
C|---0--------------------------------------------|
G|---0--3-----------3------5--------------7-------|
C|---0----0-2-3-4----3-4---0-5-6-7-------9--10----|
                * * *    * *       * * *
D|------------------------------------------------|
A|------------------------------------------------|
F|------------------------------------------------|
C|---0--------------------------------------------|
G|---0--3-----------3------5------------5pb^7-----|
C|---0----0-2-3-4----3-4----0-5-7-----------------|
(pinch harmonic on the bend at the end)

D|-----------------------------------------------------|
A|-----------------------------------------------------|
F|-----------------------------------------------------|
C|0-0-0-0----------------------------------------------|
G|0-0-0-0---3------------3-------5--------------7------|
C|0-0-0-0------0-2-3-4----3-4-----0-5-6-7------9-10----|

D|------------------------------------------------|
A|------------------------------------------------|
F|------------------------------------------------|
C|0-0-0-0-----------------------------------------|
G|0-0-0-0---3------------3-------5----------------|
C|0-0-0-0------0-2-3-4----3-4-----0-5-7-----3b----|
(pre bend last note a whole step, pinch harmonic and let bend down to note
on 3rd fret)

Main Riff (x4):
D|-------------------------------------------------------------------------------|
A|-------------------------------------------------------------------------------|
F|-------------------------------------------------------------------------------|
C|0-0--5-5-5---4-4-4--0-0-0-0-----------1-0-0-0----3-3------------------5-5------|
G|0-0--3-3-3---4-4-4--0-0-0-0-----------1-0-0-0----1-1------------------3-3------|
C|0-0------------4-4-4--0-0-0-0--320-0-1-0-0-0-----------2~--000-0---------1~----|
   * *                         * * *

Verse (x2):

D|---------------------------------------------------|
A|---------------------------------------------------|
F|---------------------------------------------------|
C|---0-0---------------------------0-0---------------|
G|---0-0---------------------------0-0---------------|
C|---0-0--0-1-2-3--0-2-3-4----0-0--0-1-2-3-0-3pb~----|

D|-----------------------------------------------------------|
A|-----------------------------------------------------------|
F|-----------------------------------------3---5---5-X--4----|
C|---0-0---------------------------------3---3---5--X-5------|
G|---0-0---------------------------------1---3---3--X-2------|
C|---0-0--0-1-2-3--0-2-3-4---------------3-------X-----------|
                     

Pre-Chorus (x4):

[Strumming] Let D string ring out here

D|----------------------------------------------|
A|----------------------------------------------|
F|--7-77---888----999--101010-----11-11-11------|
C|-0--00---000----000--0--0--0------0----0--0---|
G|----------------------------------------------|
C|----------------------------------------------|

Chorus (x2):

[Strumming]

D|-------------------------------------|
A|-3-----------------------------------|
F|-2----5----3-------------------------|
C|-0---3-----3------0--1--2--3--4------|
G|-0---3----1-------0--X-X-X-X---------|
C|-0---3-------------0--1-2---3--4-----|

Main Riffs again (x2):

D|--------------------------------------------------------------------------------|
A|--------------------------------------------------------------------------------|
F|--------------------------------------------------------------------------------|
C|0-0--5-5-5---4-4-4--0-0-0-0-----------1-0-0-0----3-3------------------5-5-------|
G|0-0--3-3-3---4-4-4--0-0-0-0-----------1-0-0-0----1-1------------------3-3-------|
C|0-0------------4-4-4--0-0-0-0--320-0-1-0-0-0-----------2~--000-0---------1~-----|


Vers (x2)


D|---------------------------------------------------|
A|---------------------------------------------------|
F|---------------------------------------------------|
C|---0-0---------------------------0-0---------------|
G|---0-0---------------------------0-0---------------|
C|---0-0--0-1-2-3--0-2-3-4----0-0--0-1-2-3-0-3pb~----|

D|----------------------------------------------------------|
A|----------------------------------------------------------|
F|-----------------------------------------3---5---5-X--4---|
C|---0-0---------------------------------3---3---5--X-5-----|
G|---0-0---------------------------------1---3---3--X-2-----|
C|---0-0--0-1-2-3--0-2-3-4---------------3-------X----------|    

Pre-Chorus (x4):
[Strumming] Let D string ring out here
D|-----------------------------------------------|
A|-----------------------------------------------|
F|--7-77---888----999--101010-----11-11-11-------|
C|-0--00---000----000--0--0--0------0----0--0----|
G|-----------------------------------------------|
C|-----------------------------------------------|


Chorus (x2):

[Strumming]

D|-------------------------------------|
A|-3-----------------------------------|
F|-2----5----3-------------------------|
C|-0---3-----3------0--1--2--3--4------|
G|-0---3----1-------0--X-X-X-X---------|
C|-0---3-------------0--1-2---3--4-----|
------
play this second time:
D|---------------|
A|-3-------------|
F|-2----5----3---|
C|-0---3-----3---|
G|-0---3----1----|
C|-0---3---------|


Riff Before Solo:
D|-------------------------------------------------|
A|-------------------------------------------------|
F|-------------------------------------------------|
C|---0---------------------------------------------|
G|---0--3-----------3------5--------------7--------|
C|---0----0-2-3-4----3-4---0-5-6-7-------9--10-----|

D|---------------------------------------------|
A|---------------------------------------------|
F|---------------------------------------------|
C|0-0-0-0--------------------------------------|
G|0-0-0-0---3------------3-------5-------------|
C|0-0-0-0------0-2-3-4----3-4-----0-5-7--0-----|



Rhythm Guitar Solo (x2):

D|-------------------------------------------------------------------------------|
A|-------------------------------------------------------------------------------|
F|-------------------------------------------------------------------------------|
C|0-0--5-5-5---4-4-4--0-0-0-0-----------1-0-0-0----3-3------------------5-5------|
G|0-0--3-3-3---4-4-4--0-0-0-0-----------1-0-0-0----1-1------------------3-3------|
C|0-0------------4-4-4--0-0-0-0--320-0-1-0-0-0-----------2~--000-0---------1~----|


D|-------------------------------------------------------------------------------|
A|-------------------------------------------------------------------------------|
F|-------------------------------------------------------------------------------|
C|0-0--5-5-5---4-4-4--0-0-0-0-----------1-0-0-0----3-3------------------5-5------|
G|0-0--3-3-3---4-4-4--0-0-0-0-----------1-0-0-0----1-1------------------3-3------|
C|0-0------------4-4-4--0-0-0-0--320-0-1-0-0-0-----------2~--000-0---------1~----|
   * *                * * * * *** *   * * *     * * *


Bridge (x4):

[Strumming]

D|-----------------------------------|
A|-----------------------------------|
F|-3--7-7----5-5----7-----5-----3----|
C|-1--5-5---3-3----5------3-----1----|
G|-1--5-5---3-3----5------3-----1----|
C|-1--5-5---3-3----5------3-----1----|

Chorus (x4):



D|------------------------------------|
A|-3----------------------------------|
F|-2----5----3------------------------|
C|-0---3-----3------0--1--2--3--4-----|
G|-0---3----1-------0--X-X-X-X--------|
C|-0---3-------------0--1-2---3--4----|

Main Riff (x4):

D|-------------------------------------------------------------------------------|
A|-------------------------------------------------------------------------------|
F|-------------------------------------------------------------------------------|
C|0-0--5-5-5---4-4-4--0-0-0-0-----------1-0-0-0----3-3------------------5-5------|
G|0-0--3-3-3---4-4-4--0-0-0-0-----------1-0-0-0----1-1------------------3-3------|
C|0-0------------4-4-4--0-0-0-0--320-0-1-0-0-0-----------2~--000-0---------1~----|
   * *                * * * * *** *   * * *     * * *


Ending
D|-------------------------------------------------------------------------------|
A|-------------------------------------------------------------------------------|
F|-------------------------------------------------------------------------------|
C|0-0--5-5-5---4-4-4--0-0-0-0-----------1-0-0-0----3-3------------------5-5------|
G|0-0--3-3-3---4-4-4--0-0-0-0-----------1-0-0-0----1-1------------------3-3------|
C|0-0------------4-4-4--0-0-0-0--320-0-1-0-0-0-----------2~--000-0---------1~----|

D|----------------------------------------------------|
A|----------------------------------------------------|
F|----------------------------------------------------|
C|0-0-0---3-3-----------5---4-3----5---4-3-----0------|
G|0-0-0---1-1----------3---4-3-----3---4-3-----0------|
C|0-0-0----------2~---------4-3----------4-3-----0----|


************************************
| bp   pinch harmonic bend
| h   Hammer-on
| p   Pull-off
| r   Release
| b   Bend
| br  Bend release
| /   Slide up
| \   Slide down
| ~   Vibrato
| *   Palm mute
| 000 Triplet
| ^ Bend up a step
************************************
comments powered by Disqus
Наверх