Аккорды Alter Bridge - Fallout

Добавлено: @romashka
Дата добавления: 05 Апреля 2018г.
Рейтинг:
0.0
Просмотров: 5
Транспонировать - +
Eb|------------------------------------------------------------------------|
Bb|------------------------------------------------------------------------|
Gb|------9---10--9-10-9------------------------9--10--12-10-9-10*-12-9-x---|
Db|--/10---10-------------10-10-(10)=b12r10-10--10-------------------------|
Ab|---------Don't pick this note!/-----------------------------------------|
Db|------------------------------------------------------------------------|

Eb|-------------------------------------------------|
Bb|-------------13-13-10-8*------8*-----------------|
Gb|------9-10-12-----------10------10---------------|
Db|---7-----------------------10-----10--9h10p9/7---|
Ab|-5-----------------------------------------------|
Db|-------------------------------------------------|
    . .

Eb|-----------------12-13-15b17r15--15p13-------------|
Bb|----------13*-13-----------------------15p13--13---|
Gb|--/9-10-12----------------------------------14-----|
Db|---------------------------------------------------|
Ab|---------------------------------------------------|
Db|---------------------------------------------------|

Eb|-----12-13--12-13-12-----------------------12-13-15--13-17-13-------13v-|
Bb|--13----------------13v--13-(13)=b15r13--13-------------------15-15-----|
Gb|--------Don't pick this note!/------------------------------------------|
Db|------------------------------------------------------------------------|
Ab|------------------------------------------------------------------------|
Db|------------------------------------------------------------------------|

  Fast part (With wah-wah pedal!)
Eb|-13-17p15p13--------------------------------------|
Bb|------------17p15p13---15p13h15p13--10-13p12p10---|
Gb|--------------------14----------------------------|
Db|--------------------------------------------------|
Ab|--------------------------------------------------|
Db|--------------------------------------------------|

Eb|-----------------------------------------|
Bb|-----------------------------------------|
Gb|--9-9h10h12p10p9-------------------------|
Db|-----------------7h8h10p8p7--------------|
Ab|----------------------------7h8h10p8p7---|
Db|-----------------------------------------|



Eb|-----------------------------------------|
Bb|-----------------------------------------|
Gb|-----------------------------------------|
Db|---12*--12-10----------------------------|
Ab|--------------12-10-8-10-12-8-/12-10-8---|
Db|-----------------------------------------|
comments powered by Disqus
Наверх