Аккорды Alter Bridge - Island Of Fools

Добавлено: @romashka
Дата добавления: 05 Апреля 2018г.
Рейтинг:
0.0
Просмотров: 25
Транспонировать - +
[Intro]
(strum to tempo; you'll have to listen to the song to hear the tempo)
D|---------------------------------------------------------------------------|
A|------------------------------------3--5-----------------------------------|
F|-2--------------5-4-2---------5---------5----0---2-------------------------|
C|---------------------------------------------------------------------------|
G|---------------------------------------------------------------------------|
C|---------------------------------------------------------------------------|
same deal here
D|---------------------------------------------------------------------------|
A|---------------------------------------------------------------------------|
F|---------------------------------------------------------------------------|
C|--------17b19---17b19--17b19-----------------------------------------------|
G|----------------------------------------17b19-----15-----------------------|
C|---------------------------------------------------------------------------|


play x4
D|---------------------------------------------------------------------------|
A|---------------------------------------------------------------------------|
F|---------------------------------------------------------------------------|
C|-0-2-0---3/2---2-----------------------------------------------------------|
G|-0-2-0--1/2----2-----------------------------------------------------------|
C|-0-2-0---x/2---2-----------------------------------------------------------|


D|---------------------------------------------------------------------------|
A|---------------------------------------------------------------------------|
F|---------------------------------------------------------------------------|
C|------------------------------------------0--------------------------------|
G|--------5--------8/7p0--------------------------5-----------8/7p0----------|
C|-0--7----0--7------------10--7h10-----0--7-----0--7--------------10--8~----|

play x4
D|---------------------------------------------------------------------------|
A|---------------------------------------------------------------------------|
F|---------------------------------------------------------------------------|
C|-0-2-0---3/2---2-----------------------------------------------------------|
G|-0-2-0--1/2----2-----------------------------------------------------------|
C|-0-2-0---x/2---2-----------------------------------------------------------|


D|---------------------------------------------------------------------------|
A|---------------------------------------------------------------------------|
F|---------------------------------------------------------------------------|
C|------------------------------------------0--------------------------------|
G|--------5--------8/7p0--------------------------5-----------8/10-9-8-7~----|
C|-0--7----0--7------------10--7h10-----0--7-----0--7------------------------|




************************************

| x   Dead note
| h   Hammer-on
| p   Pull-off
| b   Bend
| /   Slide up
| ~   Vibrato

************************************
comments powered by Disqus
Наверх