Аккорды Alter Bridge - Solace

Добавлено: @romashka
Дата добавления: 05 Апреля 2018г.
Рейтинг:
0.0
Просмотров: 27
Транспонировать - +
Tempo = 150
Steel Guitar



D |----|----------------------|----------------------|----------------------|
B |----|-----------0----------|-----------1----------|-----------3----------|
G |----|--0-----------0-------|--2-----------2-------|--4-----------4-------|
D |----|----------------------|----------------------|----------------------|
G |----|----------------------|----------------------|----------------------|
D |----|--2-----2--------2----|--4-----4--------4----|--5-----5--------5----|


-----------5----------|----------------------|
--5-----------5-------|-----------3----------|
----------------------|--4-----------4-------|
----------------------|----------------------|
--5-----5--------5----|----------------------|
----------------------|--5-----5--------5----|


--------------------------------------------|
--------------------------------------------|
--4--5-----4------2--------2--4-----0----2--|
--------------------------------------------|
--------------------------------------------|
--5--5-----5------5--------5--5-------------|

-----------------------------------------------|
-----------------------------------------------|
-----------------------------------------------|
--0--4--------4-----5-----4------0-------------|
-----------------------------------------------|
--0--0--------0--------------------------------|


----------------------|----------------------|----------------------|
-----------0----------|-----------1----------|-----------3----------|
--0-----------0-------|--2-----------2-------|--4-----------4-------|
----------------------|----------------------|----------------------|
----------------------|----------------------|----------------------|
--2-----2--------2----|--4-----4--------4----|--5-----5--------5----|


-----------7----------|----------------------|-------------|
--7-----------7-------|--8-------------------|-------------|
----------------------|-----------9----------|--9--7--5----|
----------------------|--------------10------|-------------|
--7-----7--------7----|----------------------|-------------|
----------------------|--10------------------|--10---------|


----------------------|
----------------------|
--4--------0--4-------|
----------------------|
----------------------|
--5-----5-------------|


---------------------------------------------|
---------------------------------------------|
--5--7---------5---------4-------------------|
----------------------------------7----------|
---------------------------------------------|
--0--0---------------------------------------|


----------------------|----------------------|----------------------|
-----------0----------|-----------1----------|-----------3----------|
--0-----------0-------|--2-----------2-------|--4-----------4-------|
----------------------|----------------------|----------------------|
----------------------|----------------------|----------------------|
--2-----2--------2----|--4-----4--------4----|--5-----5--------5----|


-----------5----------|----------------------|
--5-----------5-------|-----------3----------|
----------------------|--4-----------4-------|
----------------------|----------------------|
--5-----5--------5----|----------------------|
----------------------|--5-----5--------5----|



--------------------------------------------|
--------------------------------------------|
--4--5-----4------2--------2--4-----0----2--|
--------------------------------------------|
--------------------------------------------|
--5--5-----5------5--------5--5-------------|

-----------------------------------------------|
-----------------------------------------------|
-----------------------------------------------|
--0--4--------4-----5-----4------0-------------|
-----------------------------------------------|
--0--0--------0--------------------------------|


----------------------|----------------------|----------------------|
-----------0----------|-----------1----------|-----------3----------|
--0-----------0-------|--2-----------2-------|--4-----------4-------|
----------------------|----------------------|----------------------|
----------------------|----------------------|----------------------|
--2-----2--------2----|--4-----4--------4----|--5-----5--------5----|

                                                              ^
-----------7----------|----------------------|-------------|--0----||
--7-----------7-------|--8-------------------|-------------|--0----||
----------------------|-----------9----------|--9--7--5----|--0----||
----------------------|--------------10------|-------------|--0----||
--7-----7--------7----|----------------------|-------------|--0----||
----------------------|--10------------------|--10-10-10---|--0----||
comments powered by Disqus
Наверх