Аккорды Alter Bridge - Outright

Добавлено: @romashka
Дата добавления: 05 Апреля 2018г.
Рейтинг:
0.0
Просмотров: 8
Транспонировать - +
Tuning - C# G# C# F# A# D#

Intro


Guitar 1: Mark                   Guitar 2: Myles with Phaser

D#|-----------------0-| x5         D#|-------------------|
A#|-----------------3-|            A#|-10b11-12b13-13b14-|
F#|-3/4-4-4-6-6-6-7-2-|            F#|-------------------|
C#|-----------------0-|            C#|-------------------|
G#|-1/2-2-2-4-4-4-5-0-|            G#|-------------------|
C#|-----------------0-|            C#|-------------------|



Riff 1


Guitar 1 & 2

D#|-------------------------------------------------------------| x2
A#|-------------------------------------------------------------|
F#|-------------------------------------------------------------|
C#|-------------------------------------------------------------|
G#|-------------------------------------------------------------|
C#|-7-4-0--7-4-0-7-4-0-4-0-7-4-0-9-6-0--9-6-0-9-9-9-11-11-11-12-|
comments powered by Disqus
Наверх