Аккорды Арсений Креститель - Бен Хорн

Добавлено: @romashka
Дата добавления: 13 Октября 2018г.
Рейтинг:
0.0
Просмотров: 7
Транспонировать - +
Intro:
e----------------------------| 
B--------7-----7-7--9-9--9---|
G--7--9-----9----------------| 
A----------------------------| 
E----------------------------| 

E5
каждый новый день 
              F#5
каждый новый день
E5
каждый новый день
     F#5         D5      E5 D5 
я хочу вскрыться каждый день

E5
каждый новый час
              F#5
каждый новый час
E5
каждый новый час
     F#5         D5 E5 D5 
я думаю все против нас

E5
я не прощу тебя 
              F#5
потому что это скучно
E5
все прощают всех 
     F#5     D5 E5 D5 
из-за равнодушия

E5
может захотеться тихо умереть 
          F#5
но ты знаешь, 
E5
но ты знаешь 
     F#5        D5    E5 D5 
я совсем не верю в смерть

Em
цветы покрыты снегом
Em
я занимаюсь бегом
D
и жду когда режим падет
Em
не надо звать омон
Em
вот мой телефон
D
меня зовут Бен Хорн

e----------------------------| 
B--------7-----7-7--9-9--9---|
G--7--9-----9----------------| 
A----------------------------| 
E----------------------------| 

E5
что-то нужно тем 
              F#5
у кого и так все есть
E5
слабые так часто 
     F#5    D5 E5 D5 
выбирают месть

E5
кончается свобода там 
              F#5
где наступает мода
E5
те кто этого не знает 
     F#5  D5 E5 D5 
старые уроды

E5
сами виноваты в том 
            F#5
что постарели
E5
зато ты до сих пор
     F#5      D5 E5 D5 
работаешь диджеем

E5
не надо пытаться 
           F#5
что-то понять 
E5
кинь на рану блестки
     F#5      D5 E5 D5 
и отправляйся танцевать

Em
цветы покрыты снегом
Em
я занимаюсь бегом
D
и жду когда режим падет
Em
не надо звать омон
Em
вот мой телефон
D
меня зовут Бен Хорн

e----------------------------| 
B--------7-----7-7--9-9--9---|
G--7--9-----9----------------| 
A----------------------------| 
E----------------------------|
comments powered by Disqus
Наверх