Аккорды Арсений Креститель - Дабл Трабл

Добавлено: @romashka
Дата добавления: 07 Июня 2020г.
Рейтинг:
0.0
Просмотров: 29
Транспонировать - +
4x
E ----------------------------------
B ----------------------------------
G ------0-----2----4------2----4-2--
D ----2---2----------2--------------
A --3-------3---3------3----3-------
E ----------------------------------

3x
E ---------------------------------
B ---------------------------------
G ------0--------0-------------0---
D ----2---2----4---4----9--7-----7-
A --3--------5--------7------5-----
E ---------------------------------

E ---------------------------------
B ---------------------------------
G --0-0-0-0----------------7-------
D --2-2-2-2---9-7--7-7-9-9---9-----
A --3-3-3-3---7-5------------------
E ---------------------------------

Cmaj7    E5       D5
Укуси меня за палец
Я хочу закончить танец
Танец над вонючей ямой
Я с тобой как лесбиянин
Ты со мной как мазохист
Мы никогда не смотрим вниз

4x          C            D
E ----------0-----------3-2-0----
B --------1---1-------3-------3--
G ------0-------0---2------------
D ----2-----------0--------------
A --3----------------------------
E -------------------------------

3x
E ---------------------------------
B ---------------------------------
G ------0--------0-------------0---
D ----2---2----4---4----9--7-----7-
A --3--------5--------7------5-----
E ---------------------------------

E ---------------------------------
B ---------------------------------
G --0-0-0-0----------------7-------
D --2-2-2-2---9-7--7-7-9-9---9-----
A --3-3-3-3---7-5------------------
E ---------------------------------

Cmaj7          E5       D5
В наших недостроенных домах
Может жить только Аллах
Я бы мог доделать пол
Мне мешает андерграунд, рок-н-ролл
Я бы мог доделать стены
Только я жду перемены
Ты горишь как бледный факел
Я — давно засохший кратер
Кратер

4x          C            D
E ----------0-----------3-2-0----
B --------1---1-------3-------3--
G ------0-------0---2------------
D ----2-----------0--------------
A --3----------------------------
E -------------------------------

3x
E ---------------------------------
B ---------------------------------
G ------0--------0-------------0---
D ----2---2----4---4----9--7-----7-
A --3--------5--------7------5-----
E ---------------------------------

E ---------------------------------
B ---------------------------------
G --0-0-0-0----------------7-------
D --2-2-2-2---9-7--7-7-9-9---9-----
A --3-3-3-3---7-5------------------
E ---------------------------------

Cmaj7        E5       D5
Ты получаешь то, о чём мечтаешь
Только тогда, когда себя теряешь
Ты получаешь то, о чём мечтаешь
Только если ты себя теряешь
Дальше только дабл трабл
Дальше только дабл трабл

4x          C            D
E ----------0-----------3-2-0----
B --------1---1-------3-------3--
G ------0-------0---2------------
D ----2-----------0--------------
A --3----------------------------
E -------------------------------

4x
E ----------------------------------
B ----------------------------------
G ------0-----2----4------2----4-2--
D ----2---2----------2--------------
A --3-------3---3-----3----3--------
E ----------------------------------

E5 - 7 лад
D5 - 5 лад
Наверх