Аккорды Арсений Креститель - Утопия

Добавлено: @romashka
Дата добавления: 27 Апреля 2022г.
Рейтинг:
0.0
Просмотров: 20
Транспонировать - +
[Intro]
e|--------------------------14-14-11-|
B|-12--12-9--12--12-11--11-----------|
G|-----------------------------------|
D|-----------------------------------|
A|-----------------------------------|
E|-----------------------------------| 
--------------------------12-12-11-|
-12--12-9--12--12-11--11-----------|
-----------------------------------|
-----------------------------------|
-----------------------------------|
-----------------------------------| x8
[Verse 1]
E         D#5           G#5   B5
Говорила, что я слишком молод
E         D#5           G#5   F#5
Чтобы тебя любить, чтобы тебя любить
E         D#5       G#5   F#5
Говорила, это точно повод
E                 D#5   G#5             F#5
Чтобы со мной  не  быть, чтобы со мной не быть

[Chorus]
E          D#5          G#5 B5
Мы с тобой теперь утопия
E         D#5           G#5 B5
Ты и я – сраная утопия
E            D#5
Я утопил всё вокруг в огне
G#5               B5                E
Это утопия, утопия, утопия, утопия, е-е

D#5 G#5 B5

e|--------------------------14-14-11-|
B|-12--12-9--12--12-11--11-----------|
G|-----------------------------------|
D|-----------------------------------|
A|-----------------------------------|
E|-----------------------------------| 
--------------------------12-12-11-|
-12--12-9--12--12-11--11-----------|
-----------------------------------|
-----------------------------------|
-----------------------------------|
-----------------------------------| x4

[Verse 2]
E             D#5  G#5       B5
А чем старше  ты  становишься
E          D#5    G#5   F#5
Тем больше тишины вокруг
E            D#5        G#5    F#5
Думаешь, что лучше быть одним
E              D#5         G#5  F#5
Ну так хотя бы поговори со мной

[Chorus]
E          D#5          G#5 B5
Мы с тобой теперь утопия
E         D#5           G#5 B5
Ты и я – сраная утопия
E            D#5
Я утопил всё вокруг в огне
G#5               B5                E
Это утопия, утопия, утопия, утопия, е-е

D#5 G#5 B5

e|--------------------------14-14-11-|
B|-12--12-9--12--12-11--11-----------|
G|-----------------------------------|
D|-----------------------------------|
A|-----------------------------------|
E|-----------------------------------| 
--------------------------12-12-11-|
-12--12-9--12--12-11--11-----------|
-----------------------------------|
-----------------------------------|
-----------------------------------|
-----------------------------------| x4 
Наверх