Аккорды Арсений Креститель - Я убиваю эмореп

Добавлено: @romashka
Дата добавления: 07 Июня 2020г.
Рейтинг:
0.0
Просмотров: 72
Транспонировать - +
         F5                    D5                A#
Мы познакомились с тобой на концерте одной группы
  F5               D5                 A#
Ты была под чем-то и смотрелась круто
   F5               D5                A#
Чтобы стать ближе к тебе я слушал всё музло, которое ты любишь


 D5            A5          A#5
Ты как бритва и я порезался
          D5          A5            A#5
Теперь я просто жду, когда начнётся кровь


       F5                D5         A#    
Я восхищался тобой, ты любила мои песни
   F5                    D5              A#   
Фотографии и фильмы мы всегда смотрели вместе
  F5                                   D5                
Больше грустной музыки, ещё больше сладкого
 A#
Для всех вокруг мы казались загадками


   D5           A5          A#5
Ты как бритва и я порезался
           D5          A5             A#5
Теперь я просто жду, когда начнётся кровь (кровь)

Проигрыш:

G --------------------------------------------------
D -------7-8-7-------7-8-7---------7h8-8/10-8-7-----
A ---5-5------------------------------------------8-             
E ----------------5-5---------6-6------------------- 

G --------------------------------------------------
D -------7-8-7-------7-8-7---------7h8-8/10-8-7-8---
A ---5-5--------------------------------------------             
E ----------------5-5---------6-6------------------- 

G --------9-10-9--------9-10-9--------9h10-10/12-10-9----
D --12-12---------------------------------------------10-
A ----------------12-12---------13-13--------------------
E -------------------------------------------------------

G --------9-10-9--------9-10-9--------9h10-10/12-10-9-10-
D --12-12------------------------------------------------
A ----------------12-12---------13-13--------------------
E -------------------------------------------------------


                                A#   
А потом так вышло, что тебе пришлось сделать аборт
   F5                         D5                       A#    
И нам пришлось расстаться, и всё что я запомнил — это фото, на котором был гниющий натюрморт

  F5               D5          A#      
И то, что на руке была тату-рука
            F5          D5                 A#    
И то, что звёзды лучше всего наблюдать издалека


            F5    D5    A#
И ты как бритва и я порезался
           D5          A5            A#5
Теперь я просто жду, когда начнётся кровь


F5 
Я убиваю эмореп
И у меня окреп
F5                  D5                             A#    
Целуй моё дерьмо, теперь мне всё равно, ложись в склеп

F5 - 8 лад
D5 - 5 лад
A# - 1 лад
Наверх