Аккорды Black Sabbath - Born to Lose

Добавлено: @romashka
Дата добавления: 16 Марта 2013г.
Рейтинг:
0.0
Просмотров: 409
|----------------------------------------------------------
|----------------------------------------------------------
|---4h5---4h5---4h5---4h5-⁄---/7-7-7-7-7-⁄--/5-5-5-/5⁄4-2--
|---4h5---4h5---4h5---4h5-⁄---/7-7-7-7-7-⁄--/5-5-5-/5⁄4-2--
|-0-----0-----0-----0--------------------------------------
|----------------------------------------------------------

"You think.."
|----------------------------------------------------------
|----------------------------------------------------------
|---------2-5-4~--------4h5-2~~----------------------------
|---2-3-5--------------------------------------------------
|-3--------------------------------------------------------
|----------------------------------------------------------
C G F C back to fig A



|----------------------------------------------------------
|----------------------------------------(let ring)--------
|---------2-5-4~------4h5-2~---/4--5--7--9~~-
Музыка - прекрасный способ стирания мыслей, плохих и не очень, самый лучший и самый давний (Мариам Петросян)
Мы стремимся к созданию контента, соответствующего всем нормам законодательства и уважающего интеллектуальную собственность. Мы также придаем большое значение тому, чтобы не задеть никого и не оскорбить чьи-либо чувства. Если у вас есть вопросы или претензии по размещенному материалу, пожалуйста, сообщите нам об этом на указанный адрес электронной почты: [email protected].
Шрифт
-
0
+
Прокрутка
-
0
+
Стоп
Наверх