Аккорды Car Seat Headrest - Connect the Dots (The Saga of Frank Sinatra)

Добавлено: @romashka
Дата добавления: 17 Февраля 2024г.
Рейтинг:
0.0
Просмотров: 84
All chords are played with default UG chord shapes, except for the following:

[Chords]

      A        D        G        B
e|----5--------5--------3--------2----|
B|----5--------7--------3--------4----|
G|----6--------7--------4--------4----|
D|----7--------7--------4--------4----|
A|----7--------5--------5--------2----|
E|----5--------5--------3--------2----|

It should also be noted that Ethan Ives plays every single barre chord thumb-over-neck, Hendrix-style.

When E* is seen, occasionally hammer on the 2nd fret of the G string with your pinky (i.e. 022100->022200).
When E** is seen, only play the 7th fret on the A string, and slightly bend it back and forth.

[Verse 1]

N.C.
1, 2, 3, 4,
E      A        D          G         B  E*
Little boy says I’ll be in love with my fists
E      A        D          G         B     E*
Little boy says I’ll be in love with my punches
E      A        D             G          B     E*
Little boy says what should I do with my hands mom?
E      A      D           G     B     E**
Little boy is told not to do anything wrong

[Pre-Chorus 1]

       A           D            G      B  E**
When I die I’ll be taken to the constellations
       A        D             G       B      E**
Have a drink, relax, there’ll be some introductions
A           D      G        B   E**
This is Cassiopea, this is Orion
A       D      G       B     E**
This is Cindy, this is Nathan
A      D               G     B     E**
That’s Chrissy and the other Nathan

[Chorus]

E F# A

E                    F#            A
I know it’s a lot to remember says mother
E                    F#            A
I know it’s a lot to remember says father
E                    F#            A
I know it’s a lot to remember says father

[Verse 2]

E*

  E           A        D   G     B
I speak these words in utter isolation

e|-------------3-----------5p3h5--5p3h5-3-5-5b6-5-3-5-3------------|
B|----3~---3-5---5-3-5-5--------------------------------5-3-0------|
G|-4---------------------------------------------------------------|
D|-----------------------------------------------------------------|
A|-----------------------------------------------------------------|
E|-----------------------------------------------------------------|
   [ x3 ]                                      [   x6   ]
e|-5p3----5-----------12--12p10----------------15h12------12-12-12-|
B|----5p3---/10h12-x-----------12-10-10/12-12-------15h12-12-12-12-|
G|-----------------------------------------------------------------|
D|-----------------------------------------------------------------|
A|-----------------------------------------------------------------|
E|-----------------------------------------------------------------|

  E         A        D         B       B   E*
I drive the car in a line from star to stardom
E      A        D              G            B  E*
Little boy says I’ll touch the heart of the nation
E      A        D              G        B    E**
Little boy says I’ll punch the heart of everyone

[Pre-Chorus 2]

       A           D            G      B  E**
When I die I’ll be taken to the constellations
       A        D             G       B    E**
Take a drink, relax, there’ll be some introductions
A            D     G        B   E**
This is Cassiopea, this is Orion
A       D      G       B     E**
This is Cindy, this is Nathan
A      D           G                B      E**
I just met him, no that’s the other Nathan!

[Chorus 2]

E F# A

E                    F#            A
I know it’s a lot to remember says mother
E                    F#            A
I know it’s a lot to remember says father
E                    F#            A
I know it’s a lot to remember says father
E                    F#            A
I know it’s a lot to remember says someone

[Bridge]

A         Bm          D
You won’t see who you want to see there
A           Bm                 D
No one will want to be in your band (there's a bunch of people out there!)
A              Bm           D
You’ll have to learn how to make it on your own
A              Bm                 D
Spend a little time with your own hand
E

[Solo]
(Ethan's guitar alternates between E and E7. Will comes in and plays this solo.)

e|------------------------------------------------------------|
B|-12-12--12-12-----------------------------------------------|
G|---------------13--14---------------------------------------|
D|-----------------------12-14h-12-----12~--------------------|
A|----------------------------------14------------------------|
E|------------------------------------------------------------|

e|------------------------------------------------------------|
B|-12-12--12-12-----------------------------------------------|
G|---------------13-----13------------------------------------|
D|------------------12-----14-12--14(12)12--------------------|
A|-----------------------------------------14--11~------------|
E|------------------------------------------------------------|

e|------------------------------------------------------------|
B|------------------------------------------------------------|
G|------------9-------------9-------------9-----9-----9-------|
D|-------9-12----------9-12----------9-12----12----12---------|
A|-10-11---------10-11---------10-11--------------------------|
E|------------------------------------------------------------|

   (let ring)    (let ring)    (let ring)    (let ring)
B|-x-------------x-------------x-------------x---10101010-----|
B|-x-------------x-------------x-------------x---12121212-----|
G|-13------------13------------11------------11---------------|
D|-14------------14------------12------------12---------------|
A|-14------------14------------12------------12---------------|
B|-x-------------x-------------x-------------x----------------|

   (let ring)    (let ring)    (strum)       (strum)
e|-x-------------x---15151515--x-------------x-------------x--|
B|-x---15151515--x---15151515--x-------------x-------------x--|
G|-13--16161616--13------------13------------13------------11-|
D|-14------------14------------14------------14------------12-|
A|-14------------14------------14------------14------------12-|
E|-x-------------x-------------x-------------x-------------x--|

e|-0--0--0--0--0--0--0-0-0-0----0--0--0--0--0--0--0-0-0-0-----|
B|-0--0--0--0--0--0--0-0-0-0----0--0--0--0--0--0--0-0-0-0-----|
G|-13-13-13-13-13-13-16161616---13-13-13-13-13-13-16161616----|
D|-14-14-14-14-14-14-17171717---14-14-14-14-14-14-17171717----|
A|-14-14-14-14-14-14-17171717---14-14-14-14-14-14-17171717----|
E|-0--0--0--0--0--0--0-0-0-0----0--0--0--0--0--0--0-0-0-0-----|

e|-0--0--0--0--0--0--0-0-0-0----0--0--0--0--0--0--0--0--------|
B|-0--0--0--0--0--0--0-0-0-0----0--0--0--0--0--0--0--0--------|
G|-13-13-13-13-13-13-16161616---13-13-13-13-13-13-13-13-------|
D|-14-14-14-14-14-14-17171717---14-14-14-14-14-14-14-14-------|
A|-14-14-14-14-14-14-17171717---14-14-14-14-14-14-14-14-------|
E|-0--0--0--0--0--0--0-0-0-0----0--0--0--0--0--0--0--0--------|


[Chorus 3]
N.C.                                     E
Little boy says I’ll be in love with my fists

E F# A

E                                       F#
And we’re never gonna never gonna get a job
                      A                 E
And we're never gonna never gonna get a job
                                        F#
And we're never gonna never gonna get a job
                      A                 E   F# A
And we're never gonna never gonna get a job

E F# A (x2)

E

F#
FUCK...

A
OFF...

E
TEENS!

************************************

| h    Hammer-on
| p    Pull-off
| b    Bend
| ~    Vibrato
| x    Dead note
| /    Slide up
| (n)  Ghost note

************************************  
Музыка не только фактор облагораживающий, воспитательный. Музыка – целитель здоровья (Бехтерев)
Мы стремимся к созданию контента, соответствующего всем нормам законодательства и уважающего интеллектуальную собственность. Мы также придаем большое значение тому, чтобы не задеть никого и не оскорбить чьи-либо чувства. Если у вас есть вопросы или претензии по размещенному материалу, пожалуйста, сообщите нам об этом.
Шрифт
-
0
+
Прокрутка
-
0
+
Стоп
Наверх