Аккорды Car Seat Headrest - I Can Play the Piano

Добавлено: @romashka
Дата добавления: 17 Февраля 2024г.
Рейтинг:
0.0
Просмотров: 64
Play along in the key of G 

[Chords]
E5    0221xxx

[Verse]
G            Bm           G7             Em
The time has come to feel good about yourself
G             Bm           G7               Em
You have your own skin and bones to call yourself
G            Bm         G7          Cm
And you will never ever be somebody else
Cm
So pay your bills
Cm                     G
And have your children now
G  E5 G E5
Now

[Verse]
G         Bm              G7          Em
You are endowed with your responsibilities
G             Bm          G7             Em
You’ve got to choose from all these possibilities
G            Bm            G7               Cm
So, when you go to bed you get down on your knees
Cm
And find a God
Cm                G
To give your body to
    G                 E5
e|--3--3--3--3--3-----3--5--7--5--3-----|
B|-----------------3-----------------3--|
G|--------------------------------------|
D|--------------------------------------|2x
A|--------------------------------------|
E|--------------------------------------|

[Bridge]
G
Tomorrow wakes you up
Bm                 F
You find that it’s enough
F                 Em
An ample time for you
C
To live, to grow
C
To be your own

[Verse]
G         Bm            G7                       Em
You’re an adult and you can’t starve yourself to death
G             Bm                  G7            Em
You’ve got to seek help if you’re chronically depressed
G              Bm               G7                 Cm
But you’re the only one who can say what’s for the best
Cm
So close your ears
Cm                 G
And do not hear me now
G E5 G A

[Instrumental]
    G    Bm        G7         Em
e|-----------------0--------------|
B|--0--3--3--0--3--0--3--0-----0--|
G|--0-----4--------0--------2--0--|
D|--0-----4--------3-----------2--|3x
A|--2-----2--------2-----------2--|
E|--3-----2--------3-----------0--|

C Cm F G

e|--3--3--3--3--3-----3--5--7--5--3-----|
B|-----------------3-----------------3--|
G|--------------------------------------|
D|--------------------------------------|3x
A|--------------------------------------|
E|--------------------------------------|

Gm F Em C

[Outro]
Gm    F        Em C
I can play the piano
C  Em
Em    Am       G
I can play the piano
Em    Am       G
I can play the piano
Em    Am       G
I can play the piano
Em    Am       G
I can play the piano
Em    Am       G
I can play the piano
Em    Am       G      A
I can play the piano
Em    Am       G      A
I can play the piano
Em    Am       G      A
I can play the piano
Em    Am       G
I can play the piano
(Fade)
G Bm G  Em
G Bm G  Em
G Bm G  Cm
Cm G Bm G Bm G  
Музыка - это самый сильный вид магии (Мэнсон)
Мы стремимся к созданию контента, соответствующего всем нормам законодательства и уважающего интеллектуальную собственность. Мы также придаем большое значение тому, чтобы не задеть никого и не оскорбить чьи-либо чувства. Если у вас есть вопросы или претензии по размещенному материалу, пожалуйста, сообщите нам об этом.
Шрифт
-
0
+
Прокрутка
-
0
+
Стоп
Наверх