Аккорды Челенжер - Не забывай своих друзей

Добавлено: @romashka
Дата добавления: 18 Сентября 2022г.
Рейтинг:
0.0
Просмотров: 34
Транспонировать - +
E |----------------||---------------------------------------------------|
B |--9~-9~-9~------||-9-----5-----5--7-----5--------9-----9-----9-------|
G |----------------||о--------------------------------------------------|
D |----------------||о--------------------------------------------------|
A |----------------||---------------------------------------------------|
E |----------------||---------------------------------------------------|

----------------------------------------------------|
--9-----4-----4--5-----4--------4-----4-----4-------|
----------------------------------------------------|
----------------------------------------------------|
----------------------------------------------------|
----------------------------------------------------|

----------------------------------------------------|
--5-----5-----5-----4--5--------9-----9-----9-------|
----------------------------------------------------|
----------------------------------------------------|
----------------------------------------------------|
----------------------------------------------------|

----------------------------------------------------|
--9-----5-----5--7-----5--------9-----9-----9-------|
----------------------------------------------------|
----------------------------------------------------|
----------------------------------------------------|
----------------------------------------------------|

----------------------------------------------------|
--9-----5-----5--7-----5--------9-----9-----9-------|
----------------------------------------------------|
----------------------------------------------------|
----------------------------------------------------|
----------------------------------------------------|

----------------------------------------------------|
--9-----4-----4--5-----4--------4-----4-----4-------|
----------------------------------------------------|
----------------------------------------------------|
----------------------------------------------------|
----------------------------------------------------|

----------------------------------------------------|
--5-----5-----5-----4--5--------9-----9-----9-------|
----------------------------------------------------|
----------------------------------------------------|
----------------------------------------------------|
----------------------------------------------------|

----------------------------------------------|
--9-----5-----5--7-----5L-------5L----5-------|
----------------------------------------------|
----------------------------------------------|
----------------------------------------------|
----------------------------------------------|

E
Не забывай своих друзей
G#
Моменты юности своей -
C#m
Воспоминания прошлых лет
A(V)
Заставят написать куплет...

Когда вспоминаю
Что было прекрасно
Альбомы листаю,
но это напрасно.
Кидаю на улице
тусклые взгляды
Проходят недели
Но прошлое рядом.
Вот тот магазин,
перед клубом
под вечер
мы все здесь болтались
Ты помнишь те встречи?
Домой уходили
Кого-то любили
Как дороги нам
Мгновения те были

Припев:
Не забывай своих друзей
Моменты юности своей -
Как мы гуляли во дворах
На пушкаре или шарах.
Воспоминания прошлых лет
Заставят написать куплет
Набрать родные номера -
Пускай молчали провода.
Пускай молчали провода,
Найдутся школьные друзья,
Найдется первая любовь,
Вы повстречаетесь все вновь
Не забывай своих друзей
Моменты юности своей -
Воспоминания прошлых лет
Заставят написать куплет...

Прошло пара лет
Кто семья, кто работа
Кругом суета
Вместо жизни - заботы
В столице пропали
Успеха добились
Кого-то закрыли
Кого-то забыли
Не вспомнить друзей
Были их телефоны
Не видел того,
Кто в Контакте знакомый
Проснулся с улыбкой
Уснул со слезами
Для нас всё ушло
Но оно ещё с нами.

Припев.

Сбылось не все
Сбылось не так.
И в жизни полный кавардак
Вот сново утро -ты встаешь
Себе ты место не найдешь..
И мысли нет и нет любви
И все казалось позади
Но вдруг проснется телефон
А там твой друг, и скажет он:
Не забывай своих друзей
Моменты юности своей -
Как мы гуляли во дворах
На пушкаре или шарах.
Воспоминания прошлых лет
Заставят написать куплет
Былое время не жалей -
НЕ ЗАБЫВАЙ СВОИХ ДРУЗЕЙ!!!
Наверх