Аккорды Егор и Опизденевшие - Привыкать

Добавлено: @romashka
Дата добавления: 03 Ноября 2020г.
Рейтинг:
0.0
Просмотров: 28
Транспонировать - +
Вступление: G#  C#  D#  Fm  A#(VI)  C#  D#
 G#       A#(VI)          C#    D#
То ли поделом, то ли по домам,
        G#        A#(VI)             C#      D#
То ли скатертью дорожка, то ли что-то еще.
 C(III)    Fm
Словно камни,
 C(III)    Fm
Словно корни,
  C#     D#
Словно черви,
 A#m(VI)  C(III)  Fm Fm C(III) C#
Будем привыкать.

 G#         A#(VI)         C#    D#
Сумерки и боги разбрелись по углам,
        G#       A#(VI)     C#  D#
Зевота разорвала горизонт пополам.
 C(III)  Fm
Час за часом,
 C(III)  Fm
Год за годом,
  C#     D#
Век за веком.
 A#m(VI)   C(III)  Fm Fm C(III) C#
Будем привыкать.

G#  C#  D#  Fm  A#(VI)  C#  D#

 G#         A#(VI)      C#    D#
Что-то белое слепое поселилось в груди,
        G#          A#(VI)         C#      D#
То ли вьюга, то ли моль, то ли все, что впереди.
 C(III)  Fm
То ли жажда,
 C(III)  Fm
То ли полдень,
  C#     D#
То ли копоть.
 A#m(VI)     C(III)  C# Fm C(III) C#
Будем привыкать.

G#  C#  D#  Fm  A#(VI)  C#  D#


Бас:
Вступление:
G|---------------------------------------------------------|
D|-----------6-----------6--5-----------8---------6--------|
A|--6--5--6-----8--6--8--------6--3--------8----------6----|
E|--------------------------------------------9------------|

---------------------------------------------------------|
-----------6-----------6-------------8-------6-----------|
--6--5--6-----8--6--8-----6---3---------8-------6--------|
---------------------------------4---------9-------------|
Основная часть:

----------------------------------------------------------|
----------------------------------------6--6---6--8--8---8|
------------------------4--4---4--6--6--------------------|
--4--4----4--6--6----6------------------------------------|

------------------------------------------------------------5----|
-----------------------------5----3--3---3-------5----3--3----3--|
---4--4---4--6--6--4--3---3----3-------3---3--3----3-------------|
-----------------------------------------------------------------|

----------------------------------------------------------|
----------------------------------------------------------|
--4-4-4-4-4-4-4-4--6-6-6-6-6-6-6-6------------------------|
----------------------------------------------------------|

Припев:
---------------------5-------------------------5----------|
---3------5----3--3-----3----3-------5----3--3---3--------|
-1---1--3---3--------------1---1--3-----3-----------------|
----------------------------------------------------------|

----------------------------------------------------------|
---3------5----------------------3--3-3-3--3--------------|
-1---1--3---3--4-4-4-4-4-4-4-4---------------3-3-4--------|
----------------------------------------------------------|
Наверх