Аккорды Егор и Опизденевшие - Всё ли понарошку

Добавлено: @romashka
Дата добавления: 19 Сентября 2021г.
Рейтинг:
0.0
Просмотров: 44
Транспонировать - +
Em F# Bm A x4

Bm          G(III)         A(V)      D(V)
Кусок не по зубам — не по Сеньке вина
G(III)                         B        Em
Не по росту потолок — не по карману цена
Bm                        A       G(III)
Не по вкусу пряник — не по чину мундир
Em         F#        Bm     A
Пуля виноватого найдёт
Em         F#        Bm     F#
Пуля виноватого найдёт

Bm         G(III)     A(V)   D(V)
Прятались вены — искала игла
G(III)                  B        Em
Ликовали стрелы — порвалась тетива
Bm           Em      F#       G(III)
Колесом в огонь — щекой в ладонь
Em         F#        Bm       A
Пуля виноватого найдёт
Em         F#        Bm
Пуля виноватого найдёт

Припев:
F#            Bm      G(III)     A(V)
Проверим чемоданы — всё ли в порядке
F#            Bm      G(III)     A(V)
Пошарим по карманам — всё ли на месте
G(III)                  B        Em
Покашляем покурим посидим на дорожку
G(III)       F#
Всё ли понарошку?

Bm        G(III)       A(V)     D(V)
Славный урок — не в глаз а в бровь
G(III)                      B        Em
Калачиком свернулась замурлыкала кровь
Bm              Em             F#      G(III)
Стала кровь хитра — а только мы похитрей
Em         F#        Bm       A
Пуля виноватого найдёт
Em         F#        Bm       A
Пуля виноватого найдёт
Em         F#        Bm     
Пуля виноватого найдёт

Припев:
F#            Bm      G(III)     A(V)
Проверим чемоданы — всё ли в порядке
F#            Bm      G(III)     A(V)
Пошарим по карманам — всё ли на месте
G(III)                  B        Em
Покашляем покурим посидим на дорожку
G(III)       F#    Bm   A   Em
Всё ли понарошку? x4


Бас:
Вступление:                           x3
F|----------------------------------------|-----------------------|
C|-----11----------10-------------9-9---9-|-----11---------10-----|
G|-9-9----9--11-11----11-----11-------9---|-9-9----9-11-11----11--|
D|-----------------------9-9----9---------|-----------------------|

Куплет:
   I
F|------------------------------------------------------------------------------------------------------------|
C|-11----11----11---------9--------6---9-9-6------------------------------------11----------------------------|
G|----11----12----12--9-9---9--7-7---7-------7-------4---7-7-4------8-11-8-9--9----9---------9-11-11-9--------|
D|-----------------------------------------------5-5---5-------5--9-------------------9-9-12-----------12-----|

F|------------------------------------------------------------------------------------------------------------|
C|-------------------7-7---------11----------10-------------9-9---9-----11---------10----------------10-13-10-|
G|---6-9-6-------7-7-----7---9-9----9--11-11----11-----11-------9---9-9----9-11-11----11-----11---11----------|
D|-7---------5-5-----------------------------------9-9----9------------------------------9-9----9-------------|

   II
F|-------------------------------------------------------------------------------------|
C|-11----11----11---------9--------6---9-9-6-------------------------------------11----|
G|----11----12----12--9-9---9--7-7---7-------7-------4---7-7-4-------8-11-8-9--9----9--|
D|------------------------------------------------5-5---5-------5--9-------------------|

F|---------------------------------------------|
C|---------------------------------------------|
G|-----------------------------4---7-7-4-------|
D|-9-9-9-9-2-2-2-2-0-0-0-0-5-5---5-------5-----|

F|-------------------------------------------------------------------------------------|
C|-----11----------10-------------9-9---9------11----------10--------------------------|
G|-9-9----9--11-11----11-----11-------9----9-9----9--11-11----11-----11---12-11--------|
D|-----------------------9-9----9--------------------------------9-9----9-------12-9---|

Припев:
                                 x2
F|----------------------------------|--------------------------------------------------|
C|-------------6--------------------|--------------------------------------------------|
G|-----3---4-4---4-----7------------|-------7-12-12-------------------4--------------3-|
D|-4-4---4---------5-5---5--7-7-4-0-|-5-5-5---------12-9--7-7-7-4-5-5----5-5-5-5-4-4---|

   III
F|-------------------------------------------------------------------------------------|
C|-11----11----11---------9--------6---9-9-6------------------------------------11-----|
G|----11----12----12--9-9---9--7-7---7-------7-------4---7-7-4------8-11-8-9--9----9---|
D|------------------------------------------------5-5---5-------5--9-------------------|

F|---------------------------------------------|
C|---------------------------------------------|
G|-----------------------------4---7-7-4-------|
D|-9-9-9-9-2-2-2-2-0-0-0-0-5-5---5-------5-----|
                                       x2
F|----------------------------------------|---------------------------------------------|
C|-----11----------10-------------9-9---9-|-----11----------10--------------------------|
G|-9-9----9--11-11----11-----11-------9---|-9-9----9--11-11----11-----11---12-11--------|
D|-----------------------9-9----9---------|-----------------------9-9----9-------12-9---|

Припев:
                                 x2
F|----------------------------------|--------------------------------------------------|
C|-------------6--------------------|--------------------------------------------------|
G|-----3---4-4---4-----7------------|-------7-12-12-------------------4--------------3-|
D|-4-4---4---------5-5---5--7-7-4-0-|-5-5-5---------12-9--7-7-7-4-5-5----5-5-5-5-4-4---|

Outro:                                                x5
F|-------------------------------------------------------|
C|-----6---7-6-------------------------------------------| 
G|-4-4---4-----7-4-----9------7-6-4--------------3-3-----|
D|-----------------7-7---7--5--------5-5-5-5-4-4---------|
Наверх