Аккорды Manchester Orchestra - Choose You

Добавлено: @romashka
Дата добавления: 10 Февраля 2024г.
Рейтинг:
0.0
Просмотров: 62
Chorus
    G#5 Bb5 F5     B5 Bb5 F5
e|---------------------------|
B|---------------------------|
G|---------------------------|
D|---4---3---1------4--3--1--|
A|---4---1---1------2--1--1--|
D|---4---0---1------------1--|
    |_________|    |_______|
        |            |
       2x           2x

...Choose you

Verse
    F5 G#5 B5 G#5 B5 G#5 B5 F5
e|------------------------------|
B|------------------------------|
G|------------------------------|
D|---1--4---4--4--4---4--4---1--|
A|---1--4---2--4--2---4--2---1--|
D|---1--4------4------4------1--|

Bridge
    B5 G#5 C#5
e|------------|
B|------------|
G|------------|
D|---4--4---6-|
A|---2--4---4-|
D|------4-----|
    |____|
      |
      3X

And I don't...  
Но если и музыка нас оставит, что будет тогда с нашим миром? (Гоголь)
Мы стремимся к созданию контента, соответствующего всем нормам законодательства и уважающего интеллектуальную собственность. Мы также придаем большое значение тому, чтобы не задеть никого и не оскорбить чьи-либо чувства. Если у вас есть вопросы или претензии по размещенному материалу, пожалуйста, сообщите нам об этом.
Шрифт
-
0
+
Прокрутка
-
0
+
Стоп
Наверх