Аккорды Народные песни - La Cucaracha (Мексиканская народная песня)

Добавлено: @vitos
Дата добавления: 29 Июня 2016г.
Рейтинг:
0.0
Просмотров: 1 033
Транспонировать - +
E ------------------------------------------------------------------------------
B ------------------------------------------------------------------------------
G ------------------------------------------------------------------------------
D ------------------------------------------------------------------------------
A -----------------4------------------4-----------------------------------------
E ----0--0--0--5---------0--0--0--5---------5--5--4--4--2--2--0------0--0--0--4-


E ------------------------------------------------------------------------------
B ------------------------------------------------------------------------------
G ------------------------------------------------------------------------------
D -------------------------2--4--2--0-------------------------------------------
A --2---------------2------------------4--2--0----------------------------------
E -----0--0--0--4---------------------------------------------------------------
Наверх