Аккорды Народные песни - Twinkle Twinkle Little Star (Английская народная песня)

Добавлено: @vitos
Дата добавления: 30 Июня 2016г.
Рейтинг:
0.0
Просмотров: 671
Транспонировать - +
Tuning: Standard


      (A)                       (D)                 (A)
e|----------------0--------------------2------------------------------------------|
B|-------------------2---------------------3------------2-------------------------|
G|--------2------------2----------2------------------------2----------------------|
D|-----2----2-------------2---0-------------------2-------------------------------|
A|--0--------------------------------------------0--------------------------------|
E|--------------------------------------------------------------------------------|
        (D)            (A)             (E)           (A)
e|----------2---------------------------------------------------------------------|
B|-------------3--------2-----------------------------------2---------------------|
G|------2-------------------2------------1----------------------2-----------------|
D|---0--------------2-------------------------2--------2--------------------------|
A|----------------0-------------------2-------------0-----------------------------|
E|---------------------------------0----------------------------------------------|
         (A)                (D)              (A)            (E)
e|------------------------------2-------------------------------------------------|
B|-----------2---------------------3-----------2---------------0------------------|
G|----------------2-------2------------------------2--------------1---------------|
D|-------2-------------0-------------------2--------------------------------------|
A|---0----------------------------------0------------------2----------------------|
E|-------------------------------------------------------0------------------------|
        (A)                (D)              (A)            (E)
e|------------------------------2-------------------------------------------------|
B|-----------2---------------------3-----------2---------------0------------------|
G|----------------2-------2------------------------2--------------1---------------|
D|-------2-------------0-------------------2--------------------------------------|
A|---0----------------------------------0------------------2----------------------|
E|-------------------------------------------------------0------------------------|
     (A)                       (D)                 (A)
e|----------------0--------------------2------------------------------------------|
B|-------------------2---------------------3------------2-------------------------|
G|--------2------------2----------2------------------------2----------------------|
D|-----2----2-------------2---0-------------------2-------------------------------|
A|--0--------------------------------------------0--------------------------------|
E|--------------------------------------------------------------------------------|
        (D)            (A)             (E)           (A)
e|----------2----------------------------------------------0----------------------|
B|-------------3--------2---------------------------------2-----------------------|
G|------2-------------------2------------1---------------2------------------------|
D|---0--------------2-------------------------2----------2------------------------|
A|----------------0-------------------2-------------------0-----------------------|
E|---------------------------------0-----------------------0----------------------|
Наверх