Аккорды Народные песни - Yankee Doodle (Американская народная песня)

Добавлено: @vitos
Дата добавления: 30 Июня 2016г.
Рейтинг:
0.0
Просмотров: 508
Транспонировать - +
Tempo: swing


G|-------0-|---0-----|-------0-|---------|-------0-|
D|-1-1-3---|-1---3h--|-1-1-3---|-1h--0h--|-1-1-3---|
A|---------|---------|---------|---------|---------|
E|---------|---------|---------|---------|---------|


G|-1-0-----|---------|---------|
D|-----3-1-|-0-----0-|-1h--1h--|
A|---------|---1-3---|---------|
E|---------|---------|---------|

Repeat once!
Наверх