Аккорды Народные песни - Marry Had A Little Lamb (Американская народная песня)

Добавлено: @vitos
Дата добавления: 30 Июня 2016г.
Рейтинг:
0.0
Просмотров: 193
Транспонировать - +
e---------------------------------------
b---------------------------------------
g---------------------------------------
d----9--7--5--7--999--777--9-12---------
a----9--7--5--7--999--777--9-12---------
e----7--5--3--5--777--555--7-10---------

e---------------------------------------
b---------------------------------------
g---------------------------------------
d----9--7--5--7--999--77--9-7-5---------
a----9--7--5--7--999--77--9-7-5---------
e----7--5--3--5--777--55--7-5-3---------
comments powered by Disqus
Наверх