Аккорды No Doubt - Excuse Me Mr.

Добавлено: @romashka
Дата добавления: 27 Июля 2014г.
Рейтинг:
0.0
Просмотров: 383
Транспонировать - +
Main Line                                                 
---|--------------------------------------------------------------
4--|------------5--7--8--7--5-----------------5--7--8--7--5-------
4--|---5--7--8-----------------8--7--5--7--8-----------------8--7-
---|--------------------------------------------------------------
                                    
   Fill 1                           
|---------------------5--7--8--10--8-
|------------5--7--8-----------------
|---5--7--8--------------------------
|------------------------------------
                                                      
|-------------------------------------------------
|-------------------------------------------------
|--5--5-----5--8--8-----8-------------------------
|--------------------------6--6-----6--3--3-----3-

|-------------------------------------------------
|-------------------------------------------------
|--------------------------1--1--1--1--3--3--3--3-
|--1--1--1--1--3--3--3--3-------------------------

Наверх