Аккорды No Doubt - New

Добавлено: @romashka
Дата добавления: 27 Июля 2014г.
Рейтинг:
0.0
Просмотров: 425
Транспонировать - +
Intro:
|------0------0------2------0-----|
|------2------0------2------0-----|
|------2------1------2------1-----|
|------2------2------4------2-----|
|------0------2------4------2-----|
|-------------0------2------0-----|

Verses:
|----------------------------------------------|
|----------------------------------------------|
|---------------------------------------8------|
|------4----------6----------7----------9------|
|------4----------6----------7----------9------|
|--2-2---2----4-4---4----5-5---5----7-7---7----|

Chorus (play this 3 times)
|-----------------------------------|
|-----------------------------------|
|--7-7-7-7--9-9-9-9--11-11-11-11----| 
|--7-7-7-7--9-9-9-9--11-11-11-11----|
|--5-5-5-5--7-7-7-7---9--9--9--9----|
|-----------------------------------|

(play this after above)
|--------------------------------------------------------------|
|--------------------------------------------------------------|
|--13-13-13-13---14-14-14-14---16-16-16-16---17-17-17-17---18--|
|--13-13-13-13---14-14-14-14---16-16-16-16---17-17-17-17---18--|
|--11-11-11-11---12-12-12-12---14-14-14-14---15-15-15-15---16--|
|--------------------------------------------------------------|


After that, there is a little bridge part where it goes
'Don't let it go away....'
|------0------0------2------0-----|
|------2------0------2------0-----|
|------2------1------2------1-----|
|------2------2------4------2-----|
|------0------2------4------2-----|
|-------------0------2------0-----|

Наверх