Аккорды No Doubt - Underneath It All

Добавлено: @romashka
Дата добавления: 27 Июля 2014г.
Рейтинг:
0.0
Просмотров: 493
Транспонировать - +
This song is in standard tuning,E,A,D,G.

1. (Intro)
----------------------------
----------2-----------------   x8
------------2-2-4-4---------
-0-0-0-0------------(2-3)---


------------------------------
----------2------------------- on the 8th time
------------2-2-4-4------1-3--
-0-0-0-0------------2-3-------

2.
-----------------1h2h1-----------
---------------------------------   x4
-0-0--0-0------------------------
------------4-4------------------

------------------------------
------------------------------
-0-0--00-22222222------------- on the 4th time
------------------------------


3. (Verse)
---------------------------------
---------------------------------
---------2-2---2-0-0-------------
-0-0-0-0-----3-------------------
                                    x4
---------------------------------
---------------------------------
-0-0-2-2-2-2--------2-0-0--------
--------------2-2-2--------------



4. (At the break before lady saw)
---------------------------------
--4~ -4--------1~ 1--------------
--------5~ -5-------4~ -2-0------
---------------------------------

---------------------------------
--4~ -4--------1~ 1--------------
--------5~ -5-------4~ -4444-----
---------------------------------

the rest of the song is a repitition of the bars (especially 3.)

Наверх