Аккорды Pearl Jam - (Sittin' On) The Dock Of The Bay

Добавлено: @romashka
Дата добавления: 12 Мая 2024г.
Рейтинг:
0.0
Просмотров: 7
Verse 1:
G                      B
Sittin' in the mornin' sun,
        C                   B Bb A
I'll be sittin' when the evenin' comes.
G                       B
Watching the ships roll in,
       C               B Bb A
then I watch 'em roll away again, yeah.

Chorus:
    G                          E
I'm sittin' on the dock of the bay,
             G          E
watching the tide roll away.
             G                          A
Oo, I'm just sittin' on the dock of the bay,
        G     E
wastin' time.

Verse 2:
I left my home in Georgia,
headed for the 'Frisco Bay.
I have nothing to live for,
it look like nothin's gonna come my way.

Chorus:
So, I'm just gon' sit on the dock of the bay,
watching the tide roll away.
Oo, I'm just sittin' on the dock of the bay,
wastin' time.

Bridge:
G    D       C
Look like nothing's gonna change.
G  D   C
Ev'rything still remains the same.
G D             C               G
I can't do what ten people tell me to do,
F                 D
so I guess I'll remain the same, yes.

Verse 3:
I'm sittin' here restin' my bones,
and this loneliness won't leave me alone, yes.
Two thousand miles I roamed
just to make this-a dock my home.

Chorus:
Now, I'm just gon' sit at the dock of the bay,
watching the tide roll away.
Oo, I'm just sittin' on the dock of the bay,
wastin' time.

Main riff:
The riff used during the choruses goes something like this...

    G                         E
----10----10----10-10-------|-------------------------|-----------------------
-10h12-10h12-10h12-10----12-|-------------------------|-----------------------
----------------------12-11-|-------------------------|-----------------------
----------------------------|-------------------------|-----------------------
----------------------------|-------------------------|-----------------------
----------------------------|-------------------------|-----------------------
    |     |     |__|  |__|    |     |     |     |
                                 \ These notes ring throughout
                                        the following bar

    G                         E
----10----10----10-10-------|-------------------------|-----------------------
-10h12-10h12-10h12-10----12-|-------------------------|-----------------------
----------------------12-11-|-------------------------|-----------------------
----------------------------|-------------------------|-----------------------
----------------------------|-------------------------|-----------------------
----------------------------|-------------------------|-----------------------
    |     |     |__|  |__|    |     |     |     |
                                 \ These notes ring throughout
                                        the following bar

    G                            A
-------10-10----10-10----------|-12----12----------------------|--------------
----10h12----10h12-10----12h14-|----14----14-12h14-12----10h12-|--------------
----------------------12-------|----------------------14-------|--------------
-------------------------------|-------------------------------|--------------
-------------------------------|-------------------------------|--------------
-------------------------------|-------------------------------|--------------
 |     |__|     |__|  |____|     |__|  |__|     |__|  |____|

    G                         E
-10----10-------10-10----------|-------------------------|--------------------
----12----12-10h12-10----------|-------------------------|--------------------
-------------------------11/13-|-------------------------|--------------------
-------------------------------|-------------------------|--------------------
-------------------------------|-------------------------|--------------------
-------------------------------|-------------------------|--------------------
 |__|  |__|     |__|  |_____|       |     |     |     |
                                    \ This note ring throughout
                                          the following bar
Без музыки жизнь была бы заблуждением (Ницше)
Мы стремимся к созданию контента, соответствующего всем нормам законодательства и уважающего интеллектуальную собственность. Мы также придаем большое значение тому, чтобы не задеть никого и не оскорбить чьи-либо чувства. Если у вас есть вопросы или претензии по размещенному материалу, пожалуйста, сообщите нам об этом на указанный адрес электронной почты: [email protected].
Шрифт
-
0
+
Прокрутка
-
0
+
Стоп
Наверх