Аккорды «Pearl Jam»

Pearl Jam
Одна из четырех главных групп (наряду с Nirvana, Soundgarden и Alice in Chains) музыкального движения гранж, пользовавшегося большой популярностью в первой половине 90-х годов Более того, и в 21-м веке Pearl Jam пока не торопятся завязывать с музыкой – несмотря на то, что их новые работы не достигают того же уровня популярности, что был у их первых альбомов “Ten” и “Vs”, группа продолжает гнуть свою линию, не обращая внимание на обстоятельства. История коллектива уходит своими корнями в первую… Читать полностью... Одна из четырех главных групп (наряду с Nirvana, Soundgarden и Alice in Chains) музыкального движения гранж, пользовавшегося большой популярностью в первой половине 90-х годов Более того, и в 21-м веке Pearl Jam пока не торопятся завязывать с музыкой – несмотря на то, что их новые работы не достигают того же уровня популярности, что был у их первых альбомов “Ten” и “Vs”, группа продолжает гнуть свою линию, не обращая внимание на обстоятельства. История коллектива уходит своими корнями в первую половину 80-х, когда двое будущих участников группы, гитарист Стоун Госсард и басист Джефф Амент, играли вместе в сиэтлском коллективе Green River, считающемся первым коллективом, игравшим гранж. Группа просуществовала четыре года и развалилась в 1987 году из-за многочисленных разногласий между Аментом и вокалистом Марком Армом. Арм основал группу Mudhoney; Госсард с Аментом нашли нового вокалиста и ударника и назвались Mother Love Bone. Новоиспеченная группа привлекла внимание лейбла Polygram, и в 1989 году в свет вышел их первый альбом “Apple”. К сожалению, он оказался и единственным – вокалист группы Эндрю Вуд скончался от передозировки героином за несколько недель до выхода альбома. После смерти Вуда Госсард и Амент стали искать музыкантов для создания нового коллектива – одним из них стал гитарист Майк Мак-Криди. Примерно в то же время вокалист Soundgarden Крис Корнелл написал пару песен в память о смерти Эндрю Вуда и попросил бывших участников Mother Love Bone помочь записать их. Так родился одноразовый проект Temple of the Dog – трио Госсарда, Амента и Мак-Криди записало в конце концов 11 песен с вокалом Корнелла, а место ударника занял Мэтт Кэмерон из тех же Soundgarden. Все это время трио Госсарда, Амента и Мак-Криди продолжало активно искать музыкантов для своей основной группы. Они сделали демонстрационную запись из пяти песен и вручили ее бывшему ударнику Red Hot Chili Peppers Джеку Айронсу. Тот отказался взять на себя роль ударника, однако демо-запись взял с собой и позже передал ее своему приятелю Эдди Веддеру, проживающему в Сан-Диего. Веддер настолько впечатлился этой музыкой, что сам написал текст и записал вокал к трем из пяти песен, после чего отослал результат обратно в Сиэтл. Парням так понравилось, что они немедленно вызвали Веддера в Сиэтл. Так Эдди переселился из Калифорнии на противоположное побережье, и началась история группы Pearl Jam. Место ударника занял Дейв Крусен. Первоначально группа называлась Mookie Blaylock в честь известного в то время баскетболиста. Однако после подписания контракта с Epic Records название пришлось сменить – лейбл предпочел обезопасить себя от возможных судебных разбирательств. В ранних интервью Эдди Веддер объяснял, что название Pearl Jam вдохновлено его прабабушкой по имени Перл, которая умела готовить особенное варенье с пейотлем. Позже, впрочем, выяснилось, что эта история была вымышленной – на самом деле музыканты случайно придумали словосочетание Pearl Jam и оно показалось им весьма благозвучным. Дебютный альбом группы “Ten” вышел в свет в августе 1991 года – правда, ударник Крусен покинул группу за несколько недель до этого. Его место занял Дейв Аббрузесс. Альбом пользовался огромной популярностью и продавался даже большими тиражами, чем прорыв Nirvana “Nevermind”. Курт Кобейн в тот период отзывался о Pearl Jam очень негативно, называя их продажными - как считают многие, из зависти к их коммерческому успеху. Позже, впрочем, Кобейн познакомился с Эдди Веддером поближе, и они подружились. Три сингла с альбома, “Alive”, “Even Flow” и “Jeremy”, пользовались огромной популярностью, в особенности клип на “Jeremy”, который постоянно крутился по MTV и в конце года выиграл четыре награды MTV Video Music Awards, в том числе как лучший клип года. В общей сложности альбом “Ten” разошелся тиражом в девять с лишним миллионов экземпляров. Следующий альбом Pearl Jam, вышедший в 1993 году, сразу начал с установления рекорда на все времена – еще ни один альбом ни до ни после него не расходился за первую неделю продаж такими тиражами (950000), как альбом “Vs”. Такой результат был достигнут даже несмотря на то, что на этом этапе своей карьеры Pearl Jam отказались от таких средств промоушена, как съемка видеоклипов. На новом альбоме (который поначалу предполагалось назвать “Five Against One” – была даже отпечатана очень маленькая партия альбома с этим названием) Pearl Jam зазвучали более резко и агрессивно – в некоторых песнях вокал Эдди Веддера достигал невиданного прежде напряжения. Следующий альбом группы “Vitalogy” появился уже в следующем году – и занял второе место в списке альбомов, распроданных наибольшим числом копий в первую неделю продаж, следом за “Vs”. Одна из песен альбома, “Spin the Black Circle”, принесла группе в 1996 году премию «Грэмми» в номинации «Лучшее исполнение в стиле хард-рок». В том же году группа рассталась с ударником Дейвом Аббрузессом – причиной были названы извечные творческие разногласия. Ему на замену пришел старый друг группы Джек Айронс. Годом позже музыканты Pearl Jam получили возможность поработать вместе со своим идолом, американским музыкантом и певцом Нилом Янгом. Выступая в качестве группы поддержки Янга, Pearl Jam записали вместе с ним весь материал для его альбома “Mirror Ball”. Из-за сложности отношений между звукозаписывающими компаниями Pearl Jam и Янга название “Pearl Jam” не упоминается нигде на альбоме, хотя все музыканты группы упомянуты поименно. Вместе с Янгом Pearl Jam также записали миниальбом “Merkinball”, который вышел под их названием. Этот двухпесенный миньон распространялся только среди членов официального фан-клуба Pearl Jam, и потому считается раритетом. Следующей работой группы стал альбом “No Code”, возможно, наиболее сдержанный из всех альбомов Pearl Jam. Альбом сразу же попал на первое место чарта журнала Billboard, однако долго там не продержался – общий тираж, в конце концов, составил около полутора миллионов экземпляров, что было расценено как серьезный упадок после 7 миллионов “Vs” и 5 миллионов “Vitalogy”. Двумя годами позже, в 1998 году, Pearl Jam выпустили свой новый альбом “Yield”, в котором вернулись к более прямолинейному хард-роковому звучанию. Впервые с 1993 года группа решилась снять клип на одну из своих песен: сингл “Do the Evolution” сопровождался весьма эффектным анимационным клипом, для создания которого группа пригласила известного художника комиксов Тодда Мак-Фарлейна. В том же году группа снова сменила ударника – Джек Айронс из-за проблем со здоровьем был вынужден покинуть коллектив, а его место занял старый друг музыкантов и бывший участник Soundgarden Мэтт Кэмерон. С тех пор в составе группы никаких изменений не происходило. В 1999 году группа записала песню “Last Kiss”, кавер-версию баллады 50-х годов, написанную Уэйном Кохраном. Изначально предполагалось, что этот сингл будет распространяться только среди членов официального фан-клуба группы, однако песня пользовалась такой популярностью, что группе пришлось издать ее в качестве официального сингла. Включенная в благотворительный сборник “No Boundaries: A Benefit for the Kosovar Refugees”, песня добралась до второго места в чарте синглов Billboard и стала самым коммерчески успешным синглом Pearl Jam за всю их историю. Следующей их работой стал альбом “Binaural”, вышедший 16 мая 2000 года. В турне в поддержку этого альбома музыкантам пришла в голову необычная идея – отметив, насколько популярными среди фанатов были пиратские записи их выступлений, Pearl Jam решили профессионально записать каждое выступление своего турне и выпустить отдельным альбомом. В результате, по окончании этого турне дискография группы пополнилась 72-мя концертными альбомами, так называемыми «профессиональными бутлегами». Европейское турне в поддержку “Binaural” неожиданно закончилось трагедией – во время выступления Pearl Jam на фестивале в Роскилде (Дания) перед сценой началась давка. Группа прекратила играть и попыталась успокоить публику, однако было слишком поздно – девять человек были задавлены насмерть. Два остававшихся концерта европейского турне были отменены, и группа, потрясенная трагедией, надолго залегла на дно. Изначально предполагалось, что группа в какой-то мере несла ответственность за случившееся, однако в ходе разбирательства стало ясно, что всему виной была организация фестиваля, не обеспечившая должного уровня безопасности для зрителей. Несмотря на то, что после инцидента в Роскилде Pearl Jam всерьез подумывали о роспуске группы, через несколько месяцев после трагедии они возобновили концертную деятельность. В память о погибших в Роскилде зрителях группа решила отказаться от исполнения песни “Alive”. Следующий альбом группы “Riot Act” вышел в свет в ноябре 2002 года. Несмотря на все снижающиеся продажи, группа продолжила экспериментировать с поиском нового звучания. За выпуском альбома последовала серия масштабных турне по Америке, Европе и Австралии. В частности, в 2003 году Pearl Jam дали уникальную серию из трех концертов в Бостоне – список песен на каждом из этих концертов практически не повторялся. Всего было исполнено более 80 песен. Также в 2003 году группа заявила о том, что расстается со своим лейблом Epic Records. В качестве прощального жеста была выпущена ретроспектива би-сайдов и треков, не вошедших в альбомы – двойной сборник “Lost Dogs”. В качестве скрытого трека на альбоме присутствовала песня “4/20/02”, написанная Эдди Веддером в память о лидере группы Alice In Chains Лейне Стейли, скончавшемся от передозировки героина. Песня была написана Веддером 20 апреля 2002 года – в тот самый день, когда тело Стейли нашли у него дома. Годом позже Epic Records выпустили еще один сборник, “Rearviewmirror” – сборник лучших песен группы, охватывающий период с 1991 по 2003 год. В 2003 году группа также записала песню “Man of the Hour” для фильма Тима Бартона «Крупная рыба». Написанная по личной просьбе Бартона, песня принесла группе номинацию на «Золотой глобус». В 2006 году увидел свет новый альбом группы, названный просто “Pearl Jam”. Многие песни с этого альбома уже исполнялись группой в ходе концертов 2005 года. Первым синглом с альбома стала песня “World Wide Suicide”. Скрыть...
Популярные аккорды Pearl Jam:
алфавиту | просмотрам | случайно
  • INTRO:  (Play 4 times)
    
      Cadd9
    E:---------0-----------|
    B:------------3--------|
    G:------0--------0-----|
    D:---2-----------------|
    A:3--------------------|
    E:------------------0--|
    
    Em / D2 /  - X4
    
    Em   / D2  /
    Vacate…
  • Verse:
    E                             D   C
    Thereґs colours on the street
    Red white and blue
    People shufflin their feets 
    people sleepin in their shoes
    
    
    x 8
    
    Chorus:
    
    G       D                   C       E
    Keep on rocking…
  • Standart tuning
    
    Verse and Chorus:
    3x000x G D G B
    3x00xx G G D G
    3352xx G C G A
    Pre Chorus:
    0x2x3x E E D
    0x2x2x E E C#
    0x2x0x E E B
    0x4xxx E F#
    0x2xxx E E
    
    Alone...listless...breakfast table in an otherwise empty room
    Young…
  • Intro:
    Guitar 1 plays this:
    E--------------------------------|
    B--------------------------------|
    G-X-X----------0-3-----------0-3-|
    D-X-X-0--3-0-3------0--3-0-3-----|
    A--------------------------------|
    E--------------------------------|
    
    Guitar…
  • Intro/Verse:
    Em	Am	Bm	Am
    
    Lead:
    e:-------------------------------
    B:--------------------------15--
    G:--------------------14h16------
    D:---------12-------------------	(x2)
    A:---12h14-----------------------
    E:-------------------------------
    
    Chorus:
    G	C	D	C
    
    Solo:
    e:----------------------------------------
    B:----------------------------------------
    G:----------------------------------------
    D:---------12----14-12-----------12----14-	(x3)
    A:---12h14----14-----------12h14----14----
    E:----------------------------------------
    
    e:---------------------------------------
    B:---------------------------------------
    G:---------------------------------------
    D:---------12----14-12-----------12-(12)-
    A:---12h14----14-----------12h14---------
    E:---------------------------------------
    
    e:----------------------------------------------------
    B:---17-15-----17-15--------------17-15---------------
    G:----------------------------------------------------
    D:-------------------------12-----------------12-(12)-
    A:-------------------12h14--------------12h14---------
    E:----------------------------------------------------
    
    Outro:
    e:---------------------------
    B:---------------------------
    G:---------------------------		(Repeat…
  • v stum down
    ^ strum up
    
    -|----------------------------------------------------------------------------
    -|----------12--8----8-----------------------------12--8----8-----------------
    -|----------0--------0---------------7-7-----------0--------0-----------------
    -|----------------------------------------------------------------------------
    -|-9h10--10-------10---9h10p9-9-7--5------9h10--10-------10---9h10p9-9--5--5--
    -|----------------------------------------------------------------------------…
  • intro and verse riff
    
    ------------------
    --0----------0----
    --0----------0----
    --x--0-0--0--x-0--
    --3--0-0--0--3-0--
    -----2-2--3----2--
    
    chorus
    ------- ----------------
    ------- ----------------
    ------- --10-9-4-4-5-7--
    -------…
  • -|----------------------------------------------------------------|----------|
    -|-3--3-3-1--1-1-2--2-2-3--3-3------------------------------------|----------|
    -|-2--2-2-2--2-2-2--2-2-3--3-3---------------5--5-5---------------|----------|
    -|-0--0-0-3--3-3-2--2-2-3--3-3-5--5-5-7--7-7-5--5-5-8--8-8--8-8-8-|-8--8-8---|
    -|---------------4--4-4-5--5-5-5--5-5-7--7-7-7--7-7-8--8-8--8-8-8-|-8--8-8---|
    -|-----------------------------3--3-3-5--5-5--------6--6-6--6-6-6-|-6--6-6---|…
  • Intro riff:
    
        A
    e|-------------------|
    B|-------------------|
    G|-------------------|
    D|-------------------|
    A|------5---5-7------|
    E|--5-5---5-----0-0--|
    
    Verse:
    
        A5                    B5                    A5
    e|-------------------|…
  • v strum down 
    ^ strum up
    
    intro
    
    -|--------------------------------------------------------|-------------------
    -|--------------------------------------------------------|-------------------
    -|--------------------------------------------------------|-------------------
    -|----9----9-------9----9-9---9-----9----9-------9----9-9-|-------------------
    -|-7-----7-7--7--7-7--7-7---7-------7----7-------7----7-7-|-------------------
    -|-------------------------------5-----5----8--8----8---8-|-------------------…
  • Verse 1:
    
    e|---------------------------------------------------------
    B|---3---0--------3---0-----------4---0-------4---4---4----
    G|---2-----2------2-----2---------3-----3-------3---3---3--
    D|---------------------------------------------------------
    A|---------------------------------------------------------
    E|-2----------0h2-------------0h4----------4---------------
    
    Play…
  • Am (strum Am a few times)
    E|---------0-          
    B|---------1-          
    G|---------2- x 2      
    D|-----3-2-2-          
    A|---3-----0-          
    E|-1---------          
    
    then
               F C C
    E|---------1-0-0-
    B|---------1-1-1-
    G|-------2-2-0-0-
    D|-----3---3-2-2-
    A|---3-----3-3-3-
    E|-1-------1-----
    
    F…
  • Chords:
    
    C:  X32010
    F:  X33211
    G:  320033
    
    Tab notations:
    
    h = hammer-on
    p = pull-off
    / = slide up
     = slide down
    ~ = hold/shake note
    
    The basic rhythm for the verses is this:
    
    E:---------------------------------------------------------------
    B:---------------------------------------------------------------
    G:-0-0-0-0-0-0-0-0-0-0-0-0-0-0-0--0-0-0-0--0-0-0--0-0-0-0-0-0-0--
    D:-2-2-0-0-2-2-0-0-2-2-0-0-2-2-0--3-3-3-3--3-3-0--2-2-0-0-2-2-0--
    A:-3-3-3-3-3-3-3-3-3-3-3-3-3-3-3--3-3-3-3--3-3-3--3-3-3-3-3-3-3--
    E:---------------------------------------------------------------
    
    
    I…
  • INTRO:
    E-|-------------------|-
    B-|-------------------|-
    G-|-7---------------7-|-
    D-|-7-7-----7-7-----7-|-
    A-|-5-0h5p0-8-0h5p0-5-|-
    E-|-------------------|-
    
    VERSE:
       D  F(let ring)                      D  C(let ring)
    E|-2--1--------------------------------2--0----------|
    B|-3--1--------------------------------3--1----------|
    G|-2--2--------------------------------2--0----------|
    D|-0--3--------------------------------0--2----------|
    A|----------------------------------------3----------|
    E|---------------------------------------------------|
    the…
  • Normal tuning (EADG)
    
    Intro:
    |------------------------|
    |------------------------|
    |-3-2--------------------|   (2x)
    |-----3-1-3-33-3-33-3-33-|
    
    |------------------------|
    |------------------------|
    |-3-2----------3-33------|
    |-----3-1-3-33------3-33-|
    
    Verse:
    |------------------------|----------------------|---------------------------|
    |------------------------|----------------------|---------------------------|
    |-3-2--------------------|-3-2------------------|-3-2--------3-33-----------|…
  • Standard Tuning (EADGBE)
    
    
    b : Bend
    / : Slide
    h : Hammer Or Pull
    
    
    Chord Used,
    
         D  F/C  C   G  Am   F  D5   Cadd9
         
    E||--2-----------3-------1---0-----3----|
    B||--3---1---1---3---1---1---7-----3----|
    G||--2---2---0---0---2---2---7-----0----|
    D||--0---3---2---0---2---3---7-----2----|
    A||------3---3---2-------3---5-----3----|
    E||--------------3-------1--------------|…
  • Chords             E A D G B E
    
    E                  0 2 2 1 0 0
    A                  0 0 2 2 2 0
    Asus4              0 0 2 2 3 0
    Em                 0 2 2 0 0 0 
    C                  x 3 2 0 1 0 
    D                  x x 0 2 3 2
    
    
    
    
    E…
  • chord voicings
    B5  = X244XX
    E5  = 022XXX OR X799XX
    C#5 = X466XX
    G#5 = 466XXX
    A5  = 577XXX
    C5  = X355XX
    F#5 = 244XXX
    
    Mankind
    intro - 
    B5 B5 B5 B5 E5 E5 E5 E5 C#5 C#5 C#5 C#5 G#5 G#5 G#5 G#5 
    
    B5 B5 B5 B5 E5 E5 E5 E5 C#5…
  • Tuning Eb (1/2 step down) / eadgbe (normal)  
    
    Chords:
       G   C   D
    ---3---0---2
    ---3---1---3
    ---0---0---2
    ---0---2----  
    ---2---3----
    ---3---0----
    
    Intro:
    D G
    
    A:
    G C G D (sometimes sounds nice to add pinky on 3rd fret)
    
    B:
    C…
  • Start Verse
    e|----------0-----0---0---0-|
    B|----------9-----9---7---5-|
    G|--------------------------|
    D|--------------------------|
    A|--------------------------|
    E|--------------------------|
    
    Verse (x 2)
    e|--0---0---0-----0---0---0-|
    B|--5---7---9-----9---7---5-|
    G|--------------------------|
    D|--------------------------|
    A|--------------------------|
    E|--------------------------|
    
    Chorus
    e|--0---0---0-----0---0---0-|
    B|--5---4---0-----2---4---5-|
    G|--------------------------|
    D|--------------------------|
    A|--------------------------|
    E|--------------------------|
    
    Verse…
  • v strum down
    ^ strum up
    b bend   r release bend    h hammer on
    m mute   / slide up    slide down  
    s strum down slowly
    
    -|-----------------------------|-----------------|----------------------------
    -|-----------------------------|-----------------|----------------------------
    -|-----------------------------|-----------------|----------------------------
    -|-----------------------------|-----------------|----------------------------
    -|-7--x-2--4-4-4---------------|-7--x-2--4-4-4---|----------------------------
    -|---------------9--x-4--4-4-4-|---------------9-|----------------------------…
  • ------------------------------------------------------------------------------|
    ------------------------------------------------------------------------------|
    ------------------------------------------------------------------------------|
    -7-7-10-10-5-5-9-9-777777777777-----------------------------------------------|
    -7-7-10-10-5-5-9-9-777777777777-----------------------------------------------|
    -5-5--8--8-3-3-7-7-555555555555-----------------------------------------------|…
  • Tuning:
    
    e|--1---------------------------1--------------------------------------------|
    B|--1---------------------------1--------------------------------------------|
    G|--1-------------7---9---7-----1-------------7---9---7---9b---7---4---------|
    D|--1-----7---9-----------------1-----7---9----------------------------------|
    A|---------------------------------------------------------------------------|
    E|---------------------------------------------------------------------------|…
  • Enter the song after 00:13
    
    
    1st Verse:
    
    I-------I-------I-------I-------I
    I-------I-------I-------I-------I
    I---O---I---0---I---0---I---0---I
    I-------I-------I-------I-------I
    
    
    Chorus:
    
    I----------------------------I
    I-3/7---7---7-7--5---0---0-0-I
    I----------------------------I
    I----------------------------I
    
    I----------------------------I
    I-3/7---7---7/9--5---0---0-0-I
    I----------------------------I
    I----------------------------I
    
    I-----------------------------------------I
    I-3/7---7---7-7--5---0---/9--7--7/9--5--0-I
    I-----------------------------------------I
    I-----------------------------------------I
    
    
    2nd…
  • E-|---------------------------------------------------------------------------|
    B-|--10----10---r---r---r----5--5--5------------------------------------------|
    G-|--10----10---a---a---a----5--5--5------------------------------------------|
    D-|--10----10---k---k---k----7--7--7---7--7-----------------------------------|
    A-|--8-----8----e---e---e----7--7--7---7--7-----------------------------------|
    E-|--------------------------5--5--5---5--5-----------------------------------|…
  • Verse:
    e:------------------------------------
    B:--------------88-5------------------
    G:---55-7-5-7-0-----7-5-5-7-7-5-7-----
    D:------------------------------------
    A:------------------------------------
    E:------------------------------------
    
    e:------------------------------------
    B:--------------88-5------------------
    G:---55-7-5-7-0-----7-5-5-4-5-7-------
    D:------------------------------------
    A:------------------------------------
    E:------------------------------------
    
    e:------------------------------------
    B:------------------------------------
    G:---55-------------------------------
    D:-----7---5--------------------------
    A:-------7----------------------------
    E:------------------------------------
    
    Repeat…
  • normal tuning
    
    hold a D chord
    e--3--0--0h2p0-----------2------------------------
    b---------------3------------3--------------------
    g------------------2------------------------------
    d--0------------------0----------0----------------
    a-------------------------------------------------
    e-------------------------------------------------…
  • G1 (mike) is DGDGBD
    G2 (stone) is standard
    
    -|--------------------------------------------------------------|-------------|
    -|-8--8-----8--8-----8--11--10--10--10--10--10--10--10--10--12--|-------------|
    -|-5--5--5--5--5--5--5---8---7---7---7---7---7---7---7---7---7--|-------------|
    -|-7--7--7--7--7--7--7------------------------------------------|-------------|
    -|--------------------------------------------------------------|-------------|
    -|--------------------------------------------------------------|-------------|…
  • Tuning one guitar in standard one in Eb tuning (half-step down)
    
    E---------
    B---------
    G-----99--    (standard guitar)
    D---99--99
    A-77------
    E---------
    PM........
    INTRO
    
    G-----------
    D----------- (standard bass)
    A-7---------
    E-----7----5
    BASS
    
    E----------…
  • ------------------------------------------------------------------------------|
    ------------------------------------------------------------------------------|
    -7--x--x-x-x------4-4--6-6----------------------------------------------------|
    -9--x--x-x-x------5-5--7-7--9-------------------------------------------------|
    -9--x--x-x-x------5-5--7-7--9-------------------------------------------------|
    -7--7*-7*7*7*-----3-3--5-5--7-------------------------------------------------|…
  • intro/chorus/verse:
    -2-2-2-2--2-2--3-3-3-3--2-2--------4--4---7--7---2----------------------------|
    -3-3-3-3--2-2--3-3-3-3--2-2--------5--5---7--7---3----------------------------|
    -4-4-4-4--3-3--4-4-4-4--3-3--------6--6---9--9---4----------------------------|
    -4-4-4-4--4-4--5-5-5-5--4-4--------6--6---9--9---4----------------------------|
    -2-2-2-2--4-4--5-5-5-5--4-4--------4--4---7--6---2----------------------------|
    ----------2-2--3-3-3-3--2-2---------------0-----------------------------------|
    
    
    ------------------------------------------------------------------------------|
    -15br-15br14-15v-14-15-15p14p12-12-14-14br------------------------------------|
    ------------------------------------------------------------------------------|
    ------------------------------------------------------------------------------|
    ------------------------------------------------------------------------------|
    ------------------------------------------------------------------------------|…
  • Intro/Chorus
    
    Fig. 1 4x
    |-------------------------------|
    |-------------------------------| 
    |-------------------------------|
    |-4-44-4-44-4-4--0-00-0-00-0-0--|
    
    Verse:
    Fig. 1 - 8x: add the slide after every fourth time.
    |----------|…
  • Standard Tuning
    
    Intro: C#   C   C#   C    C#   C    C#    C#
    
    Verse:
      D5                    E5              A     D5
    Thought it was easy to fall in love but U  U  U
      D5                    E5              A
    You are different,…
  • Verse
    |----------------------------
    |---10-11-8-x----------------
    |-9-9--10-7-x-5-5-5--5-5-5-5-
    |-9-7--8--5-x-5-5-5--5-5-5-5-
    |-7-----------3-3-3--3-3-3-3-
    |----------------------------
    
    Chorus (chords)
    |----------------------
    |----------------------
    |-9-----12-----5-----7-
    |-9-----12-----5-----7-
    |-7-----10-----3-----5-
    |----------------------…
  • Intro
    G-----------------------------------------------------
    D-14-13-11-9----------14-13-14-16-14-13-11-9----------
    A-------------11h12p11------------------------11h12p11
    E-----------------------------------------------------
    
    Verse
    G------------------------
    D-9-7-9-7/---------------
    A---------11h12p11-9-7-(6)
    E------------------------
    Sometimes…
  • intro+verse+Guitar solo
    ---------------------------------------
    ---------------------------------------
    --------4-0-4-0-4-0----------------
    --0-0------------------4-3----------
    
    chorus
    ----------------------------
    ----------------------------
    -3-3--------5------------
    -------3--------5---------…
  • g-----------------
        d-----------------
        a--7----7--6666666
        e----5------------
        
        
        
        g---3--3--777-3-33-777
        d---------------------
        a---------------------
        e---------------------…
  • intro/verse/postchorus:
    ------------------------------------------------------------------------------|
    --7--7-7--5--5-5----5-----7--5------------------------------------------------|
    --5--5-5--5--5-5--5-5--5--5--5------------------------------------------------|
    --7--7-7--7--7-7--7-7--7--7--7------------------------------------------------|
    ------------------------------------------------------------------------------|
    ------------------------------------------------------------------------------|
    
    
    ---------------------------|----------------------|---------------------------|
    --------10--8h10p8--5--1-|--10-10p8-10-13-12-10-|---------------------------|
    ---------------------------|----------------------|---------------------------|
    ---------------------------|----------------------|---------------------------|
    ---------------------------|----------------------|---------------------------|
    ---------------------------|----------------------|---------------------------|…
  • The guitar is turn to open D for this song
    which is spelled from low string to high
    string DADF#AD, and is treated with some
    chorus and reverb.
    
    -D---|-0---------------------11-11--|- 
    -A---|-0---------------------11-11--|-…
  • :Bass line
    G---------------------------------------------------------------------
    D---------------------------------------------------------------------
    A---0h7----------0p5--------------------------------------------------
    E---------------------------------------------------------------------…
  • Great opener for Binaural. Easy + fun song to play along with.
    
    ------------------------------------------------------------------------------|
    ------------------------------------------------------------------------------|
    -1--444--666----111----444--666-----------------------------------------------|
    -2--555--777----222----555--777-----------------------------------------------|
    -2--555--777----222----555--777-----------------------------------------------|
    -0--333--555----000----333--555-----------------------------------------------|…
  • Riff 1 (guitar 1):
    
    e:-----------------------------------|
    h:------1-----1---1-----1-------1----|
    g:------------------1-1---1-2-2---2--|          
    d:--0-0---0-0---0--------------------|          
    A:-----------------------------------|
    E:-----------------------------------|
    
    
    Guitar…
  • standard tuning.
    
    Verse:
     
    Fig. 1 - 3x          Fig. 2 - 1x
    |-----------------| |-------------|
    |-----------------| |-------------|
    |-----------------| |-------------|
    |-5-5-5-5-5-5-5-5-| |-5-3-0-3--3--|
    
    Repeat this section…
  • Intro
    E|---0------------------------------------------------------------------------||
    B|---1------------------------------------------------------------------------||
    G|---2------------------------------------------------------------------------||
    D|---2------------------------------------------------------------------------||
    A|---0------------------------------------------------------------------------||
    E|---------------------------------------------------------------------------||
    
    Verse…
  • Stone - G1 
    Mike - G2 
    I think there's 3 guitars in this song, I've tried to combine 
    the third part into the other two parts 
    
    -|---------------|---------------|---------------|-----------------|--------|- 
    -|---------------|---------------|---------------|-----------------|--------|-…
  • Am    Am7 Am
    
    Am               Am Am7 Am
    Come you masters of war
    Am                      Am Am7 Am
    You that build the big guns
    Am                      Am Am7 Am
    You that build the death planes
    Am                        Am…
  • D                 G  
    And the rivers shall open for the righteous  (2x)
    And the rivers shall open for the righteous, someday
            D     G         D       G 
    I went walking, with my brother
            D     G           A…
  • v strum down
    ^ strum up
    
    -|---------------------------------|--------------------------------|---------
    -|--------3--3---3-------3---------|-------3--3---3-------3---------|---------
    -|---------------------------0-----|---0----------------------0-----|---------
    -|-5--5--------5---4-4-4---4---4-5-|-5---5------5---4-4-4---4---4-5-|---------
    -|---------------------------------|--------------------------------|---------
    -|---------------------------------|--------------------------------|---------…
  • intro/end:
    ------------------------------------------------------------------------------|
    -------5-----5----------------------------------------------------------------|
    -----0-----0------------------------------------------------------------------|
    -7p5-----5--------------------------------------------------------------------|
    ------------------------------------------------------------------------------|
    ------------------------------------------------------------------------------|…
  • B
         She lived on a curve in the road
    
         G
         In an old tar paper shack
    
         B                                    G
         On the south side of the town on the wrong side of the tracks
    
         B
         Sometimes on the…
  • Chords
    A5(1)     C5     G5     A5(2)     Bb5     C5
    --------------------------------------
    -2------------------------------------
    -2------------------------------------
    -------5---------------------3------5-
    -------3-------5-----7-------1------3-
    ---------------3-----5----------------
    PORCH
    ++++++++++++++++++++++++++
    Chords…
  • =0D
    
     intro and verse
    ||---------------------------------||
    ||*------------------------5h7-*||
    ||*-0-0-0-0-0---5h7---------*||
    ||---------------------------------||-
    =0D
     chorus
      Am          C                      D…
  • main riff this is a mixture of the guitar
    and bass lines.
    
    ------------------------------
    ------------------------------
    --7----7-p-6--6---7---7---7-/-
    -(0)--(0)----(0)-(0)-(0)-(0)--
    --7----7------7---7---7---7-/-
    --0----0------0---0---0---0---
    
    an…
  • 1 -------3----------3---------------3----------3---------------
     2--------3----------3---------------3----------3---------------
     3----------4----------4---------------4-----------4------------
     4--------------------------------------------------------------…
  • Intro 
    
      |(i)| |--------(3x)-------| 
      
    E--0-0--0-0-0-0-0-0-0-0-0-0-0- ...in (i), play the first up stoke, 
    B--5-0--5-5-5-5-5-8-8-8-8-7-7-  and 0-0-7 as downstoke.
    G--7-7--6-6-6-6-7-7-7-7-7-7-7-   
    D--7----7-7-7-7-7-0-0-0-0-0-0-…
  • Intro
    
    Fig. 1 4x
    ------------|
    ---2-0-2----| 
    -0-------3--|
    ------------|
    
    Verse:
    
    Fig. 1 4x, then:
    
    --------------|
    --------------|
    -3--3--3--3---|
    --------------|
    
    Play verse 2x, then:
    
    Chorus:
    Fig. 2 - 9x
    ------------|…
  • -|------------------------------------------------------------------------|---
    -|-0---0----0--x-x-x------------------------------------------------------|---
    -|-1---1--1-1--x-x-x-------1--1---1----------1-1-1--1-------1-1-1--1------|---
    -|-2---2--2-2--x-x-x--2----2--2-2-2--2----2--2-2-2--2----2--2-2-2--2----2-|---
    -|-2---2--2-2--x-x-x--2----2--2-2-2--2----2--2-2-2--2----2--2-2-2--2----2-|---
    -|-----0--0-0---------0--0-0--0-0-0--0--0-0--0-0-0--0--0-0--0-0-0--0--0-0-|---…
  • Intro:
    
    e ------------------------------------------------------------
    B ------------------------------------------------------------
    G ------6--9---9/11--11--11----6-----6--9--9/11--11--11-------
    D ---6--6--9---9/11--11--11----6--6--6--9--9/11--11--11-------
    A…
  • (main rif)
    -----------------------------------------------------------------|
    -----------------------------------------------------------------|
    6-6-6-6-6-6-6-6--------------------------------------------------|
    6-6-6-6-6-6-6-6-6-6-6-6-6-6-6-6-7-7-7-7-7-7-7-7-4-4-4-4-4-4-4-4--|
    4-4-4-4-4-4-4-4-6-6-6-6-6-6-6-6-7-7-7-7-7-7-7-7-4-4-4-4-4-4-4-4--|
    ----------------4-4-4-4-4-4-4-4-5-5-5-5-5-5-5-5-2-2-2-2-2-2-2-2--|
    (not…
  • Intro
    
    E ---------------------------------
    B ---------------------------------
    G -----------1--3--5--3--1---------
    D --------3--------1---------------  repeat 4 times
    A -----3---------------------------
    E --1------------------------------…
  • Guitar 1: CGCGCE
    Guitar 2: CGCGCE
    
    intro/chorus/interlude: Guitar 1:
    ------------------------------------------------------------------------------|
    ------------------------------------------------------------------------------|
    ----------------12------------------------------12-----5--10------------------|
    -------12----12--------3------8--------12----12--------5--10------------------|
    ----12----12---------3------8-------12----12---------5----10------------------|
    -12----------------3------8------12----------------5------10------------------|
    
    
    verse:
    G1:
    ------------------------------------------------------------------------------|
    ------------------------------------------------------------------------------|
    ------------------------------------------------------------------------------|
    -----------------12h14--12-------12-10-8----12--------------------------------|
    -----12----8-----12h14--12--8----12-10-8----12--------------------------------|
    --12----12----12--------------12---------12-----------------------------------|…
  • -|---------|---------------------------|--------------------------|-----------
    -|---------|---------------------------|--------------------------|-----------
    -|-------0-|-2-------------------2-2-2-|-2----------------------0-|-----------
    -|-----0---|-2----0h7h9---7vvvv--2-2-2-|-2----0h7h9--7-9b10r9-7-0-|-----------
    -|-10-----|-0-/7----------------0-0-0-|-0-/7---------------------|-----------
    -|---------|---------------------------|--------------------------|-----------…
  • standard tuning.
    easy song - really just two parts
    
    intro: 
    (After the bass and drums come in, play
    only one of these phrases each time the 
    guitar riff goes around)
    Phr. 1
     ^   ^(2)    ^---3---^    ^---4---^
    --------------------------------------
    ---------------2-4--------------------…
  • intro/outtro:
    ------------------------------------------------------------------------------|
    ------------------------------------------------------------------------------|
    -----0-----0-----0-----0------0-11-9------0-----0-----------------------------|
    ---0-----0-----0-----0------0-----------0-----0-----0-------------------------|
    ------------------------------------------------------------------------------|
    -1-----3-----6-----8-----10-----------1-----3-----6---5-----------------------|
    
    
    verse:
    ------7-5-------------------7-5--------------------0--------------------------|
    ----------5--8---8--------------5---3--3--3--3--1----0------------------------|
    ----6--------9---9--------6---------4--4--4--4--2------1----------------------|
    --7---------10--10------7-----------5--5--0--5--3------2----------------------|
    -------------------------------------------------------2----------------------|
    ------------------------------------------------------------------------------|…
  • Instrument: 6 String Guitar
    
    Tuning: Standard (E A D G B E)       B   D   F#1   G    F#2
    E|-------------------3-----2------------------------------------------||
    B|-------------------3-----2------------------------------------------||
    G|-----4---7----11---4-----3------------------------------------------||
    D|-----4---7----11---5-----4-----------------------------------------||
    A|-----2---5-----9---5-----4-----------------------------------------||
    E|-------------------3-----2-----------------------------------------||
    
    Intro…
  • v strum down
    ^ strum up
    m mute
    For the tab contest
    
    -----|-------|----------------------------------------------------------------
    -----|-------|----------------------------------------------------------------
    -----|-------|--------5----5--4-4--4-4---3---3--2---4--4-4--------5--5-5---4--
    -----|-------|--------5----5--5-5--5-5---3----------5--5-5--------5--5-5---5--
    -----|-------|----------------------------------------------------------------
    -----|-------|----------------------------------------------------------------…
  • intro    NC (E7)                                       
    |--------|---------------------------------------------
    |--------|---------------------------------------------
    |--------|----------------------------------5h7-----
    |--5h7-|-0----0-5h7-0---0-0-5h7-------------…
  • riff 1 
    e|----------| 
    B|----------| 
    G|----------| 
    D|----------| 
    A|--0-5h7-0-| 
    E|----------| 
     
    Intro:                                        A  G   G  G  G  G  G G... 
    e|---------------------------|    e|----------5--3---3-3-3-3-----------|…
  • G  C  G
    
    C     G   C    F           C   G
    Wise men say: only fools rush in
    F    G      Am     Dm     C       G    C
    But I can't help falling in love with you
    
    C     G   C    F        C   G
    Shall I stay, Would it be a sin
    F…
  • Intro
    
    (note in brackets for reference only)
    
    
    B Minor x24432
    B Aug   x24332
    
    
    E/-------------------------------------------------------------7------7-----------|
    B/----------------------------------------------------------------10-----10^r(10)-|
    G/---9^(11)----9^r(9)----9^--9^----7--------------7--9--9^------------------------|
    D/------------------------------------9--------9----------------------------------|
    A/--------------------------------------------------------------------------------|
    E/--------------------------------------------------------------------------------|
    
    
    E/---7-------7---10^r(10)---10^--------|
    B/------10-----------------------------|
    G/-------------------------------------|
    D/-------------------------------------|
    A/-------------------------------------|
    E/-------------------------------------|
    
    Chorus
    
    D…
  • It's very important to get down the strumming in all of the riffs and mesh with
    the drum beat
    
    -|-----------------------|-0----------------|---------------------------------|
    -|-----------------------|-0----------------|---------------------------------|
    -|-----------------------|-1----------------|---------------------------------|
    -|-----------------------|-2----------------|---------------------------------|
    -|-----------------------|-2----------------|---------------------------------|
    -|-----------------------|-0----------------|---------------------------------|…
  • First Verse:
    
    Fig. 1 4x
    |-----------------------12-10-12-10----|
    |----12-10-12-12--------------------12-|
    |----------------10--10----------------| 
    |-10-----------------------------------|
    
    |----------------------------|…
  • D	G	EmA	C/D		Also, D~ represents this:
    2	3	0	0	0	  2
    3	3	0	2	3	  3
    2	0	0	2	0	  2
    0	0	2	2	2	  0 -0 -0 -0 -0 -0 -0 -0
    x	2	2	0	3	  x
    x	3	0	x	x	  x
    
    
    Intro-  D~ for as long as ya want
    
    D~
    And I wished for so long. Cannot stay.
    D~
    All…
  • tuning (both guitars): Eb Ab Db Gb Bb Eb
    
    intro:
    -------------------1--0-------------------------------------------------------|
    ----------1--1--1--3--3-----------1------1--1--1---3--------------------------|
    -2-----2--2--0--2--2--2---------0-----2--2--0--2---2--------------------------|
    -2-----0--3--3--3--0--0-----0h2----------3--3--3---0--------------------------|
    -0--------3--3--3---------0--------------3--3--3------------------------------|
    ---3-2-2----------------------------2-----------------------------------------|
    
    
    verse:
    ------------------------1--0--------------------------------------------------|
    -1--1--1--1---1--1--1---3--3--------------------------------------------------|
    -2--0--2--2---2--0--2---2--2--------------------------------------------------|
    -2--2--2--0---3--3--3---0--0--------------------------------------------------|
    -0--0--0------3--3--3---------------------------------------------------------|
    ----------2-------------------------------------------------------------------|
    
    
    chorus:
    ----------------------------------5------------------1--0---------------------|
    -----------3-----------3-----------5--------1--1--1--3--3---------------------|
    ---------2---2-------2---2----------5-------2--0--2--2--2---------------------|
    -------3-------3---3-------3---------7------3--3--3--0--0---------------------|
    --------------------------------------7-----3--3--3---------------------------|
    --2--3-----------3---------------------5--------------------------------------|…
  • main riff 
    
    --0--0--0--
    --0--0--0--
    --1--3--4--
    --2--4--5--
    --2--4--5--
    --0--0--0--pre-solo stuff
    ----------------- -----------------
    ----------------- -----------------
    ----------------- -----------------
    -3-5-7-5---------…
  • CHORD PROGRESSION 1:
         A              D
    E-|--5--5--5--5--|--2--2--2--2--|-
    B-|--5--5--5--5--|--3--3--3--3--|-
    G-|--6--6--6--6--|--2--2--2--2--|-
    D-|--7--7--7--7--|--0--0--0--0--|-
    A-|--7--7--7--7--|--------------|-
    E-|--5--5--5--5--|--------------|-
    
    RUN…
  • Drop D tuning
    
     Intro
    E:--------------------------------
    B:--------------------------------
    G:--------------------------------
    D:--------9--9--9--9--5-5-5-5-5-5-
    A:-11/-0--9--11-11-9--5-5-5-5-5-5-
    D:--------9--9--9--9--5-5-5-5-5-5-…
  • D         G              C9     G 
              I seem to recognize your face 
              D          G                  C9      G 
              Haunting familiar yet I can't seem to place it 
              Cannot find the candle of…
  • GUITAR 1
    RIFF 1:
    E----------------------------------
    B----------------------------------
    G-9-9-9-9-9---7-7--9-9-9-9-9---5-5-
    D-9-9-9-9-9---7-7--9-9-9-9-9---5-5-
    A-7-7-7-7-7---5-5--7-7-7-7-7---3-3-
    E-7-7-7-7-7---5-5--7-7-7-7-7---3-3-
    
    GUITAR…
  • g-------------------------------------------------------- -|
    d------------------5-5-5--------------------------------|
    a----7------5-7-----------7-5--------------------------|
    e-------0-------------------------7-5-------------------|
    
    do…
  • INTRO
    E---------------------  
    B-------3-3----------- Repeat intro a few times then it 
    G---0-------0----5-4-0 changes to chords i think that 
    D-5---5--------5------ McCready keeps playing the intro 
    A---------------------…
  • Chords used:
    
         G   Cadd9  Am     D   Gmaj7  G/B
     e |-3-| |-3-| |-0-| |-2-| |-3-| |-3-|
     B |-3-| |-3-| |-1-| |-3-| |-3-| |-3-|
     G |-0-| |-0-| |-2-| |-2-| |-0-| |-0-|
     D |-0-| |-2-| |-2-| |-0-| |-0-| |-0-|
     A |-2-| |-3-|…
  • Two guitars arranged for one:
                                                                               
    |--5--3h5p3---------------3--|
    |------------5--(1/4)--3--3--|               Riff A (play 2x)
    |-------------------------0--|
    |----------------------------|
    |----------------------------|
    |----------------------------|
    
    
    Cold…
  • intro/verse:
    --------------------------------------0------2--0-----------------------------
    -3--3---3--3-----------3---3----3---3---3----3--3--3------3--3--2-------------
    -2----2----2-------------0-0---0----2--------2-----2----0----0--0-------------
    -0---------4--4-2-0-----------2-----0-----4--4--2--0---------2--2-------------
    ---------------------2-------0------------------------2------0--0-------------
    ------------------------------------------------------------------------------…
  • Drop D tuning: DADGBe
    
    The verse is variations of this (shown here is the first time through):
    
    --5------------5-------------5----------3-2-0---0----
    ----3-3-3-3-3----3---3-------------------------------
    ----------------------------------------------2---2-2
    0-------------------------------------------------
    -------------3-----3---3-3-2--------2-0--------------
    -----------------------------------------------------
    
    
    Chorus:
    
    D…
  • intro 
    --12--12-x-x-x-
    ---------x-x-x-
    --12--12-x-x-x-
    ---------x-x-x-
    ---------x-x-x-
    ---------x-x-x-
    
    verse strum thses chords
    
    --0--3-----3--
    --0--3--2--3--
    --1--0--2--0--
    --2--0--2--0--
    --2--2--0--2--
    --0--3-----3--…
  • Verse:
    
    (F5) F            C
         Trouble, oh trouble set me free
    Gm        A#                     Gm                A#
      I have seen your face and it's too much for me today
    (F5) F            C
         Trouble, oh trouble can't…
  • Standard tuning : E A D G B E 	Time Signature: 4/4
    
    Intro/verse 1:
    The guitar plays basically the same chords as the organ, 
    except they're palm-muted in a repetetive rhtyhm, which
    you'll pick up easy from the CD. 
    
      C…
Наверх