Аккорды Pearl Jam - State Of Love And Trust

Добавлено: @romashka
Дата добавления: 12 Мая 2024г.
Рейтинг:
0.0
Просмотров: 11
Capo: 5

C                 Em
State of love and trust
     C      Em
as I busted down the pretext
C         Em
sin still plays and preaches
       C             Em
but to have an empty court, uh huh
C       Em 
and the signs are passin, 
C        Em
grip the wheel can't read it
C    Em                 C                  Em
sacrifice receiving the smell that's on my hands...hands yeah

C     Em    G        D               Em 
and I listen for the voice inside my head
F#             G              A
nothin', I'll do this one myself

C       Em
lay her down as priest does
C          Em
should the lord be acountin'
C       Em
will be in my honour
        C              Em
make it pain painfully quick, uh huh
C    Em 
promises are whispered
C      Em
in the age of darkness
C       Em
want to be enlightened
       C                   Em
like I want to be told the end...end, yeah

C       Em
and the barrel shakes
G       D            Em
aimed directly at my head
    F#        G              A
oh, help me, help me from myself
C     Em     G
and I listen yeah, 
     D                 Em
from both sides of the bed
F#             G              A
nothin', I'll do this one myself

(No chords)
oh oh oh myself....Myself
yeah, yeah
        
Option A (Solo only)
--------------------------------------

e|-----0-0-0---------------|
B|---3-------3-0-0-0-------|
G|-------------------2-0---|
D|-----------------------4-| *  3
A|-------------------------|
E|-------------------------|

e|---------------|
B|---------------|
G|-0-0-0-0---0-0-|
D|---------5-----|  *  1
A|---------------|
E|---------------|

---------------------------------------

Option B (Chords Integrated)
--------------------------------------

e|---0-0-0-0-0-0-0-0-------|
B|---3-1-1-1-3-0-0-0-------|
G|---0-0-0-0-0-0-0-0-2p0---|
D|---2-2-2-2-2-2-2-2-----4-| *  3
A|---3-3-3-3-3-2-2-2-------|
E|-------------0-0-0-------|

E|-0-0-0-0-0-0-0-0-|
B|-1-1-1-1-0-0-0-0-|
G|-0-0-0-0-0-0-0-0-|
D|-2-2-2-2-2-2-2-2-|  *  1
A|-3-3-3-3-2-2-2-2-|
E|---------0-0-0-0-|

---------------------------------------

(Play above solo over this)
hey, na-na-na-na, hey that's something
hey, na-na-na-na, hey that's something
hey, na-na-na-na, hey that's something
wanna back, back it away , yeah

C     Em    G        D               Em 
and I listen for the voice inside my head
F#             G              A
nothin', I'll do this one myself
C               Em
oh, ah, and the barrel waits,
G       
trigger shakes
D                 Em
aimed right at my head
          D
won't you help me
C            Em
help me from myself

eh oh eh o ehh
eh oh eh o ehh

state of love and trust
state of love and trust
state of love and trust
state of love and...yeah!
(Play C-Em over the outro solo)
Музыка дает душу вселенной, крылья разуму, полет воображению и жизнь всему (Платон)
Мы стремимся к созданию контента, соответствующего всем нормам законодательства и уважающего интеллектуальную собственность. Мы также придаем большое значение тому, чтобы не задеть никого и не оскорбить чьи-либо чувства. Если у вас есть вопросы или претензии по размещенному материалу, пожалуйста, сообщите нам об этом.
Шрифт
-
0
+
Прокрутка
-
0
+
Стоп
Наверх