Аккорды Песни из телепередач - "Stone Cold" Steve Austin Theme (из телепередачи "WWE SmackDown!")

Добавлено: @vitos
Дата добавления: 11 Июля 2016г.
Рейтинг:
0.0
Просмотров: 406
Транспонировать - +
  E5  F5  E5   
-----------------I
----------------0I
-----------------I
--2-2-3-3-2-2----I
--2-2-3-3-2-2---0I
--0-0-1-1-0-0----I

E|---13--|      E|---12-13-12---| Lead Guitar stuff.
B|---15b-|      B|---12-13-12---|


--------------------|
--------------------|
--------------------|
--2-2-3-3-2-2-3-3-5-|
--2-2-3-3-2-2-3-3-5-|
--0-0-1-1-0-0-1-1-3-|

E|-15----| Lead guitar plays with wah during riff above
B|-15----| -0-6-0-6-0-6-0-6-0-6-7------I Gtr 2
---------------------------0I
----------------------------I
----------------------------I
---------------------------0I
-0-6-0-6-0-6-0-6-0-6-7------I Gtr 1

-0-6-0-6-0-6-0-6-0-8-7------I Gtr 2
----------------------------I
----------------------------I
----------------------------I
----------------------------I
-0-6-0-6-0-6-0-6-0-8-7------I Gtr 1

   + < o< +
G|-12-12-12-| play with wah over and over again
Наверх