Аккорды Песни из видеоигр - Memories and Dreams (из видеоигры "Sally Face")

Добавлено: @romashka
Дата добавления: 04 Января 2020г.
Рейтинг:
0.0
Просмотров: 26
Транспонировать - +
1|---0----------------------0-------------------|
2|-----3--1--0--1--0------------3--1--0--1------| 
3|---------------------0----------------------2-|
4|-2----------------------2---------------------|

1|-------0-0-0-0-0------------------------------------------------------|
2|-------------------3-3-3--1-1-1-1-1-1-1-1-0-0-0-0-0-3-3-3-1-1-1-1-1---|
3|--------------------------------------------------------------------2-|
4|-2-2-2----------------------------------------------------------------|

1|--------0-0-0-0-0------------------------------------------------------|
2|--------------------3-3-3--1-1-1-1-1-1-1-1-0-0-0-0-0-3-3-3-0-0-0-0-0---|
3|---------------------------------------------------------------------2-|
4|--2-2-2----------------------------------------------------------------|
comments powered by Disqus
Наверх