Аккорды Песни из видеоигр - Zelda's Lullaby (из видеоигры "The Legend of Zelda: Ocarina of Time")

Добавлено: @vitos
Дата добавления: 04 Июля 2016г.
Рейтинг:
0.0
Просмотров: 460
Транспонировать - +
G| ------------2-0-----
D| -0-----0---0---0---
A| 2-0-0-2-0-2-----3-2-0
E| ---3----------------

G| ------------2-0-7-
D| -0 ----0---0------
A| 2-0-0-2-0-2--------
E| ---3--------------

G|7-5-4-5-4-0--5-4-0-4-0--7-5-4-5-4-0-5-12
D|----------------------2-----------------
A|----------------------------------------
E|----------------------------------------
Наверх