Аккорды Песни из видеоигр - Duke Nukem 3D (из видеоигры "Duke Nukem 3D")

Добавлено: @vitos
Дата добавления: 01 Июля 2016г.
Рейтинг:
0.0
Просмотров: 472
Транспонировать - +
Intro - 1
G|----------------------------------------|
D|--------------0-------------------------|
A|--0-2--2-4--4-----4-2-0-----------2-0---|
E|-2----2----2----2-------2-0-1-2-3-----3-|


Intro - 2
G|----------------------------------------|
D|--------------0----------------x--------|
A|--0-2--2-4--4-----4-2-0-----0-2---2-0-2-|
E|-2----2----2----2-------2-2-----2-------|


Main - 1
G|-----------------------------------------------------|
D|-----------------------------------------------------|
A|-----------------------------------------------------|
E|-2-2-2-2-2-2-2-2-2-2-2-2-2-2-2-2-2-2-2-2-2-2-2-2-2-2-|


Interlude - 1
G|-------------|
D|-0-----------|
A|---4---------|
E|-----2-3-3-3-|


Main - 2
G|-----------------------------------------------------------------|
D|-----------------------------------------------------------------|
A|-----------------------------------------------------------------|
E|-3-3-3-3-3-3-3-3-3-3-3-3-3-3-3-3-3-3-3-3-3-3-3-3-3-3-3-3-3-3-3-3-|


Interlude - 2
G|----------------------------------------|
D|--------------0-------------------------|
A|--0-2--2-4--4-----4-2-0-----------2-0---|
E|-2----2----2----2-------2-0-1-2-3-----3-|


Interlude - 3
G|------------|
D|-----0-0--0-|
A|--------4---|
E|-0-0--------|


Order:

Intro - 1
Intro - 2
Main - 1
Interlude - 1
Main - 1
Interlude - 1
Main - 2
Interlude - 2
Main - 1
Interlude - 1
Main - 1
Interlude - 3
Main - 1
Interlude - 1
Main - 1
Наверх