Аккорды Песни из видеоигр - Fight On! (Boss Battle Theme) (из видеоигры "Final Fantasy VII")

Добавлено: @vitos
Дата добавления: 01 Июля 2016г.
Рейтинг:
0.0
Просмотров: 373
Транспонировать - +
Standard tuning

            
|-----------------------------------------------|
|-----------------------------------------------|
|-----------------------------------------------|
|-----------------------------------------------|
|--0-0-0-3---0-0-0-5---0-0-0-6-5-3--5-3-2--3-2--|
|-----------------------------------------------|
palm mute the open notes ^
|-----------------------------------------------|
|-----------------------------------------------|
|-----------------------------------------------|
|--------1---------3----------4-3-1--3-1-0--1-0-|
|--3-3-3-----3-3-3-----3-3-3--------------------|
|-----------------------------------------------|
plam mute the 3's on the fifth string ^
|------------------------------|
|------------------------------|
|------------------------------|
|--2-----5---------------------|
|--0--2--3--5--3---------------|
|-----0-----3--1---------------|
Наверх