Аккорды Rammstein - Du hast

Добавлено: @romashka
Дата добавления: 22 Марта 2013г.
Рейтинг:
0.0
Просмотров: 819
Транспонировать - +
Riff 1
E|-------------------------------------------------------------|
B|-------------------------------------------------------------|
G|-------------------------------------------------------------|
D|-7--5---2---2---2-2-2---2---2-2-75--2---2---2-2-2---2---2-2--|
A|-7--5---2---2---2-2-2---2---2-2-75--2---2---2-2-2---2---2-2--|
E|-5--3---0---0---0-0-0---0---0-0-53--0---0---0-0-0---0---0-0--|

E|-------------------------------------------------------------|
B|-------------------------------------------------------------|
G|-------------------------------------------------------------|
D|-5-/-7---7---7---7-7-7---7---7-7-----------------------------|
A|-5-/-7---7---7---7-7-7---7---7-7-----------------------------|
E|-3-/-5---5---5---5-5-5---5---5-5-----------------------------|

Du
Du hast
Du hast mich

Du
Du hast
Du hast mich

Du
Du hast
Du hast mich

Du
Du hast
Du hast mich

Du hast mich
Du hast mich gefragt
Du hast mich gefragt
Du hast mich gefragt und ich hab nichts gesagt

  Riff 2
E|-------------------------------------------------------------|
B|-------------------------------------------------------------|
G|-------------------------------------------------------------|
D|-7--5---2---2---2-2-2---2---2-2-75---2---2---2-2-2---2---2-2-|
A|-7--5---2---2---2-2-2---2---2-2-75---2---2---2-2-2---2---2-2-|
E|-5--3---0---0---0-0-0---0---0-0-53---0---0---0-0-0---0---0-0-|

 Willst du bis der   Tod euch scheidet

E|-------------------------------------------------------------|
B|-------------------------------------------------------------|
G|-------------------------------------------------------------|
D|-5-/-7--7--7--7-7-7--7---7-7-5/7-----7---7---7-7-7---7---7-7-|
A|-5-/-7--7--7--7-7-7--7---7-7-5/7-----7---7---7-7-7---7---7-7-|
E|-3-/-5--5--5--5-5-5--5---5-5-3/5-----5---5---5-5-5---5---5-5-|

 treu ihr sein   fur alle Tage

E|-------------------------------------------------------------|
B|-------------------------------------------------------------|
G|-4-/-5---5---5---5-5-5---5---5-5-5/4--4---4--4-4-4---4---4-4-|
D|-4-/-5---5---5---5-5-5---5---5-5-5/4--4---4--4-4-4---4---4-4-|
A|-2-/-3---3---3---3-3-3---3---3-3-3/2--2---2--2-2-2---2---2-2-|
E|-------------------------------------------------------------|

                                     NEIN
E|-------------------------------------------------------------|
B|-------------------------------------------------------------|
G|-------------------------------------------------------------|
D|-7--5---2---2---2-2-2---2---2-2-75--2---2---2-2-2---2---2-2--|
A|-7--5---2---2---2-2-2---2---2-2-75--2---2---2-2-2---2---2-2--|
E|-5--3---0---0---0-0-0---0---0-0-53--0---0---0-0-0---0---0-0--|

                                     NEIN

Willst du bis der Tod euch scheidet
treu ihr sein fur alle Tage
NEIN
NEIN

Du
Du hast
Du hast mich

Du
Du hast
Du hast mich

Willst du bis der Tod euch scheidet
treu ihr sein fur alle Tage
NEIN
NEIN

Willst du bis zum Tod der Scheide
sie lieben auch in schlechten Tagen
NEIN
NEIN

Willst du bis der Tod euch scheidet treu ihr sein
NEIN
NEIN
Наверх