Аккорды Rammstein - Te quiero puta!

Добавлено: @romashka
Дата добавления: 29 Марта 2014г.
Рейтинг:
0.0
Просмотров: 879
Транспонировать - +
intro

e|----------------------------------------------------------------------|
B|----------------------------------------------------------------------|
G|--5-------------------------------------------------------------------|
D|--6-------------------------------------------------------------------|
A|--6------0---4-----x--4p3 --4---x--4---x---4p3 --4p3------------------|
E|--4------0---4-----x--4p3---4---x--4---x---4p3---4p3------------------|

Esto se toca casi toda la canción
e|----------------------------------------------------------------------|
B|----------------------------------------------------------------------|
G|----------------------------------------------------------------------|
D|----------------------------------------------------------------------|
A|---4-----x--4p3 4---x--4---x---4p3 4p3--------------------------------|
E|---4-----x--4p3-4---x--4---x---4p3-4p3--------------------------------|

Y después solo cambia un acorde al ultimo

e|----------------------------------------------------------------------|
B|----------------------------------------------------------------------|
G|----------------------------------------------------------------------|
D|----------------------------------------------------------------------|
A|------------4-----x--4p3-- 4---x--4---x---4p3 --4p3------3------------|
E|------------4-----x--4p3---4---x--4---x---4p3---4p3------1------------|


Después solo  Palm mute   durante  mas, mas mas por favor  
e|----------------------------------------------------------------------|
B|----------------------------------------------------------------------|
G|----------------------------------------------------------------------|
D|----------------------------------------------------------------------|
A|--------x--x--x----x--------x--x--x-----x-----------------------------|
E|--------x--x--x----x--------x--x--x-----x-----------------------------|

Y al ultimo  se toca asi varias veces y termina con el ultimo acorde
e|----------------------------------------------------------------------|
B|----------------------------------------------------------------------|
G|----------------------------------------------------------------------|
D|----------------------------------------------------------------------|
A|----x--8--8--x---8--8--x--8--8------------3---------------------------|
E|----x--8--8--x---8--8--x--8--8------------1---------------------------|

Наверх