Аккорды «Rammstein»

Rammstein
Группа Rammstein была основана в январе 1994 года в Берлине гитаристом Рихардом Круспе. Свою музыкальную карьеру он начал в Западной Германии в группе «Orgasm Death Gimmick», сбежав из ГДР в 1989 году. После объединения Германии он вернулся на родину в город Шверин. Круспе, поклонник Kiss, искал возможности соединить любимый им хард-рок с электронным звучанием индастриала. В это время он познакомился с Оливером Риделем (бас-гитара) и Кристофом Шнайдером (ударные), позднее с Тиллем Линдеманном, игравшими… Читать полностью... Группа Rammstein была основана в январе 1994 года в Берлине гитаристом Рихардом Круспе. Свою музыкальную карьеру он начал в Западной Германии в группе «Orgasm Death Gimmick», сбежав из ГДР в 1989 году. После объединения Германии он вернулся на родину в город Шверин. Круспе, поклонник Kiss, искал возможности соединить любимый им хард-рок с электронным звучанием индастриала. В это время он познакомился с Оливером Риделем (бас-гитара) и Кристофом Шнайдером (ударные), позднее с Тиллем Линдеманном, игравшими в различных панк-рок-группах. В этом составе они организовали группу Rammstein. Линдеманн, игравший прежде на барабанах (группа First Arsch) занял место солиста, ему же принадлежат тексты песен, исполняемые группой. Все музыканты группы — из бывшей Германской Демократической Республики. 19 февраля 1994 года Rammstein с песнями «Das alte Leid», «Seemann», «Weißes Fleisch», «Rammstein», «Du Riechst So Gut» и «Schwarzes Glas» вчетвером выиграли конкурс молодых групп в Берлине, получив право записи на профессиональной студии. Годом позже к группе присоединился второй гитарист Пауль Ландерс, а затем и клавишник Кристиан Лоренц, игравшие в панк-группе Feeling B. В таком составе и с продюсером Якобом Хельнером был записан дебютный альбом Herzeleid. Все тексты в этом альбоме, как и в большинстве последующих, написаны Линдеманном. После нескольких неудачных попыток написать тексты на английском, как того требовал лейбл, Тилль настоял на том, чтобы писать песни на немецком. Выпущенный на лейбле Motor Music, первый диск Rammstein завоевал широкую популярность. Rammstein заметил лидер Nine Inch Nails Трент Резнор, который порекомендовал две их песни для саундтрека к триллеру Дэвида Линча «Шоссе в никуда». Это принесло группе дополнительную известность. В 1995 году в поддержку альбома Rammstein совершили тур по Европе на разогреве у Clawfinger. На концертах Rammstein демонстрировали яркие пиротехнические шоу. В 1996 году Rammstein впервые выступили на телеканале MTV. Этот же телеканал долгое время отказывался транслировать видеоклипы группы. В 1997 году был выпущен новый сингл «Engel», к которому был снят клип, имевший успех. За ним вышел второй альбом группы, Sehnsucht, который почти сразу же приобретает статус платинового. В ноябре 1997 года был выпущен внеальбомный сингл «Das Modell» с кавер-версией одноимённой трека группы Kraftwerk. Группа пользуется большим успехом как в Германии, так и за её пределами. Несколько синглов Rammstein попадали в десятку лучших в Германии. Несколько лет фанаты ждали следующей студийной работы группы. Такой большой перерыв породил множество разных слухов, в основном о распаде группы. Однако в 2000 году Rammstein садятся в студию записывать новый альбом. В 2001 году вышел третий студийный альбом под названием Mutter, занявший 4-е место в рейтинге лучших индастриал-метал-альбомов по версии журнала Metal Hammer. Вскоре был проведён тур в его поддержку, после которого количество фанатов Rammstein значительно увеличилось. Позже были выпущены синглы «Links 2-3-4», «Ich will», «Mutter», «Feuer frei!» и видеоклипы к ним. В 2003 году, к десятилетию своего существования, Rammstein выпускают DVD Lichtspielhaus c полным собранием клипов и несколькими концертными записями в хорошем качестве. В начале 2004 года появилась достоверная информация о скором выходе нового альбома. Через несколько месяцев после этого вышли синглы «Mein Teil» и «Amerika». И, наконец, в начале осени был выпущен четвёртый альбом, названный Reise, Reise, который очень отличается от стилистики прошлых альбомов группы, что, однако, не помешало ему стать платиновым. Альбом немедленно был сопровождён туром, в ходе которого выходит сингл с альбома — «Ohne dich». Во время Reise, Reise Tour шоу лишилось многих спецэффектов (пластиковый фаллос, горящий плащ), но взамен приобрело новые. В феврале 2005 года последовал тур вместе с группой Apocalyptica, после чего вышел сингл «Keine Lust» и клип к нему. В сентябре выпускается клип, а затем и сингл «Benzin», одноимённая песня с которого войдёт на следующий, пятый альбом группы. В следующем месяце выходит сам альбом, получивший название «Rosenrot», который содержал 7 старых треков, не вошедших в прошлый альбом, и 4 новые композиции. В декабре последовал сингл «Rosenrot». В 2006 году вышел концертный DVD Volkerball, запланированный ещё на 2004-й, но вышедший позднее. Диск получил в основном положительные отзывы. В 2008 году после трёхлетнего перерыва стало известно о том, что группа записывает новый альбом. 18 сентября 2009 года вышел первый сингл с нового альбома — «Pussy», а в середине декабря — клип «Ich tu dir weh». Сам альбом Liebe ist für alle da (рус. «Любовь существует для всех») был выпущен 16 октября. 23 апреля 2010 года состоялась премьера клипа «Haifisch». Альбом выпускался на двух дисках — в первом диске находился собственно альбом, на втором — дополнительные пять песен, записанные во время работы над альбомом. Видеоклип на песню Pussy стал очень скандальным: на протяжении почти всего клипа присутствуют порновставки, демонстрирующие половые акты с участием всех музыкантов группы. Как рассказали впоследствии участники группы, это были дублёры. Видео было запрещено к показу по телевидению. 21 декабря 2009 года вышел клип на песню «Ich tu dir weh». Режиссёром был Йонас Акерлунд. Rammstein подверглись критике со стороны государственного комитета по контролю СМИ на предмет опасного для молодёжи содержания (нем. Bundesprüfstelle für jugendgefährdende Medien). Этот комитет объявил песню «Ich tu dir weh» восхваливающей насилие и садомазохизм. Кроме того, одна из фотографий внутри буклета изображает Рихарда, готового ударить обнажённую женщину, что также рассматривается комитетом как неприемлемое для распространения среди молодёжи оформление диска. 16 ноября группа выпустила новую версию диска без спорной песни и фотографии. 23 апреля 2010 года состоялась премьера видео «Haifisch». 26 февраля, 28 февраля и 1 марта 2010 года состоялись российские концерты группы в поддержку этого альбома, а 7 марта впервые прошёл концерт в Минске. Это шоу стало самым скандальным концертным мероприятием в истории Белоруссии. Сначала совет ветеранов, а затем совет по нравственности, состоящий из церковных деятелей и членов союза писателей, призвали правительство страны к отмене концерта, обвинив команду «неприкрытой пропагандой гомосексуализма, садомазохизма и других извращений, жестокости, насилия и непристойной брани» и заявив, что Rammstein угрожают «белорусской государственности». Тем не менее концерт состоялся при полном аншлаге, собрав рекордное количество посетителей: более 11 000 человек. 9 марта 2010 группа впервые посетила Киев. Первый концерт на Украине собрал возле сцены около 10 000 человек. С 3 по 6 июня 2010 года группа выступила на фестивале Rock Am Ring. Rammstein дали согласие на трансляцию 7 песен — Rammlied, B********, Ich Tu Dir Weh, Pussy, Sonne, Haifisch и Ich Will. Но две песни были вырезаны из эфира, это песни «B********» и «Pussy», их выступление можно посмотреть на YouTube. 18 июля группа выступила в Квебеке на летнем фестивале. После летних фестивалей в конце 2010 года группа выступила в Латинской Америке и дала один концерт в США, а в начале 2011 года в Австралии, Новой Зеландии (в рамках фестиваля Big Day Out) и впервые в ЮАР. C 5 по 31 мая Rammstein совершили турне по Северной Америке, дав 6 концертов в США, 3 в Канаде и 4 в Мексике. 11 июня 2011 года в сети появилась демо-версия песни «Mein Land», а ещё через несколько дней группа объявила, что 6 ноября планирует отправиться в тур, во время которого будут исполняться лучшие песни коллектива с момента основания. Также было сказано, что осенью будет выпущен новый сингл и клип, а затем и сборник лучших песен. Сингл «Mein Land» и клип на эту песню вышли 11 ноября 2011 года (в Германии, Австрии и Швейцарии). Мировая премьера состоялась 14 ноября. Также сингл содержит новую песню «Vergiss uns Nicht». Сборник Made in Germany 1995–2011 был выпущен 2 декабря. 22 марта 2012 года группа выступила с Мэрилином Мэнсоном на одной сцене, исполнив его хит "The Beautiful People" на Echo Awards в Берлине. Факты: * Поклонником группы, астрономом из Франции Жаном-Клодом Мерленом, в 2001 была открыта малая планета в поясе астероидов. Астероид № 110393 получил от него название «Rammstein», в честь группы. * Белоснежку в клипе Sonne играет Юлия Степанова. В некоторых частях клипа, где Белоснежка стоит над участниками группы, это очень высокий баскетболист, а лицо и руки девушки были наложены с помощью компьютера. * Клип «Keine Lust» снимался в двух вариантах. В одном из вариантов, девушки стреляют из огнемёта. Одна из девушек одета в огнеупорный плащ, в котором обычно Тилль пел песню «Rammstein». * Гитарист Рихард Круспе организовал собственную группу Emigrate, где является вокалистом и гитаристом. * Текст песни «Wiener Blut» был основан на реальной истории Йозефа Фритцля — австрийского инженера-электрика из города Амштеттен, Австрия. В апреле 2008 Йозеф был арестован по обвинению в принудительном содержании взаперти своей младшей дочери Элизабет Фритцль, которую он держал в подземном звуконепроницаемом бункере в подвале собственного дома с 1984 года. При этом она подвергалась бытовому насилию со стороны отца с 1977 года. Постепенно их отношения стали носить сексуальный характер — инцест, в результате которого Элизабет родила 7 детей. * Клипы Rammstein скандально знамениты и нередко оказываются запрещенными к показу на ТВ. Например, в музыкальном видео на песню Mein Teil, написанную про немецкого каннибала Армина Майвеса, съевшего несколько лет до этого человека и затем осужденного пожизненно, ангел делает минет вокалисту Тиллю Линдеманну, а тот после этого съедает его. * В песне Rammstein «Moskau» с Тиллем Линдеманном поет на русском языке Виктория Ферш — девушка из Таллина, которая живёт в Германии. * В «Spieluhr», кроме вокала Rammstein, слышится ещё один голос. Он принадлежит дочери Тилля, Кире Ли Линдеманн. Состав: Тилль Линдеманн (4.01.1963) — вокал; Пауль Ландерс (9.12.1964) — гитара, бэк-вокал; Кристоф Шнайдер (11.05.1966) — ударные; Кристиан «Флаке» Лоренц (11.06.1966) — клавишные; Рихард Круспе (24.06.1967) — гитара, бэк-вокал; Оливер Ридель (11.04.1971) — бас-гитара. Дискография: Студийные альбомы: 1995 - Herzeleid 1997 - Sehnsucht 2001 - Mutter 2004 - Reise, Reise 2005 - Rosenrot 2009 - Liebe ist für alle da Сборники: 2011 - Made in Germany 1995-2011 Синглы: 1995 - Du riechst so gut 1996 - Seemann 1997 - Engel 1997 - Engel (Fan Edition) 1997 - Du hast 1997 - Das Modell 1998 - Du riechst so gut '98 1998 - Stripped 2001 - Asche zu Asche 2001 - Sonne 2001 - Links 2-3-4 2001 - Ich will 2002 - Mutter 2002 - Feuer frei! 2004 - Mein Teil 2004 - Amerika 2004 - Ohne dich 2005 - Keine Lust 2005 - Benzin 2005 - Rosenrot 2006 - Mann gegen Mann 2009 - Pussy 2010 - Ich tu dir weh 2010 - Haifisch 2011 - Mein Land DVD: 1999 - Live aus Berlin 2003 - Lichtspielhaus 2006 - Völkerball Скрыть...
Популярные аккорды Rammstein:
алфавиту | просмотрам | случайно
  • (intro) F#m D 
    
    F#m 
    Im lichtkleid kam sie auf mich zu 
        D                F#m 
    Ich weiß es noch wie heut': 
    Ich war so jung, Hab' mich geniert 
         D             F#m 
    Doch hab' es nie bereut. 
    
    C#m…
  • Cm, G#
    Cm, G# D#m
    
    Cm                 G#
    Sah ein Mädchen ein Röslein stehen,
    Cm             G#            D#m
    blühte dort in lichten Höhen, 
       Cm               G#
    so sprach sie ihren Liebsten an, 
    C…
  • Dm
     Ein zwei drei vier funf sechs sieben acht neun auch
     Dm(q) – 4eins
    
     Dm
       Alle warten auf das licht
     Dm(q) – 1eins
     Dm
       Furchtet euch furchtet euch nicht
     Dm(q) – 1eins
     Dm
       Die sonne scheint mir aus den augen…
  • Intro
    [ Clean guitar with reverb ]
    D|-------------------------------------------------------------------
    A|-------------------------------------------------------------------
    F|-------------------------------------------------------------------
    C|--0---0---0---0---0---0---0---0---0---0---0---0---0---0---0---0----
    G|----0---0---0---0---0---0---0---0---0---0---0---0---0---0---0---0--
    C|--0-------0-------0-------0-------0-------0-------0-------0--------
    
    D|-------------------------------------------------------------------
    A|-------------------------------------------------------------------
    F|-------------------------------------------------------------------
    C|--3---5---7---7---3---5---7---7---3---5---7---7---3---5---7---7----
    G|----5---7---8---8---5---7---8---8---5---7---8---8---5---7---8---8--
    C|-------------------------------------------------------------------
    
    D|-------------------------------------------------------------------------
    A|-------------------------------------------------------------------------
    F|-------------------------------------------------------------------------
    C|--12----10----8----8----3---5---7---7---3---5---7---7---3---5---7---7----
    G|-----13----12---10---10---5---7---8---8---5---7---8---8---5---7---8---8--
    C|-------------------------------------------------------------------------
    
    D|-------------------------------------------------------------------------
    A|-------------------------------------------------------------------------
    F|-------------------------------------------------------------------------
    C|--3---5---7---7---12----10----8----8----0---0---0---0---0---0---0---0----
    G|----5---7---8---8----13----12---10---10---0---0---0---0---0---0---0---0--
    C|----------------------------------------0-------0-------0-------0--------
    
    D|-----------------------------------------------------------------------
    A|-----------------------------------------------------------------------
    F|-----------------------------------------------------------------------
    C|--8---8---8---8---5---5---7---7---0---0---0---0---10---10---10---10----
    G|----8---8---8---8---5---5---7---7---0---0---0---0---10---10---10---10--
    C|----------------------------------0-------0----------------------------
    
    D|-----------------------------------------------------------------------
    A|-----------------------------------------------------------------------
    F|-----------------------------------------------------------------------
    C|--8---8---8---8---5---5---7---7---3---3---7---7---12---12---10---10----
    G|----8---8---8---8---5---5---7---7---0---0---0---0---10---10---10---10--
    C|----------------------------------0-------0----------------------------
    
    D|-------------------------------------------------------------------
    A|-------------------------------------------------------------------
    F|-------------------------------------------------------------------
    C|--8---8---8---8---5---5---7---7---0---0---0---0---0---0---0---0----
    G|----8---8---8---8---5---5---7---7---0---0---0---0---0---0---0---0--
    C|----------------------------------0-------0-------0-------0--------
    
    D|-------------------------------------------------------------------
    A|-------------------------------------------------------------------
    F|-------------------------------------------------------------------
    C|--3---5---7---7---3---5---7---7---3---5---7---7---3---5---7---7----
    G|----5---7---8---8---5---7---8---8---5---7---8---8---5---7---8---8--
    C|-------------------------------------------------------------------
    
    D|-------------------------------------------------------------------------
    A|-------------------------------------------------------------------------
    F|-------------------------------------------------------------------------
    C|--12----10----8----8----3---5---7---7---3---5---7---7---3---5---7---7----
    G|-----13----12---10---10---5---7---8---8---5---7---8---8---5---7---8---8--
    C|-------------------------------------------------------------------------
    
    D|-------------------------------------------------------------------------
    A|-------------------------------------------------------------------------
    F|-------------------------------------------------------------------------
    C|--3---5---7---7---12----10----8----8----0---0---0---0---0---0---0---0----
    G|----5---7---8---8----13----12---10---10---0---0---0---0---0---0---0---0--
    C|----------------------------------------0-------0-------0-------0--------
    
    D|-----------------------------------|
    A|-----------------------------------|
    F|-----------------------------------|
    C|--0---0---0---0---0---0---0---0----|
    G|----0---0---0---0---0---0---0---0--|
    C|--0-------0-------0-------0--------|
    
    First…
  • Riff 1
    E|-------------------------------------------------------------|
    B|-------------------------------------------------------------|
    G|-------------------------------------------------------------|
    D|-7--5---2---2---2-2-2---2---2-2-75--2---2---2-2-2---2---2-2--|
    A|-7--5---2---2---2-2-2---2---2-2-75--2---2---2-2-2---2---2-2--|
    E|-5--3---0---0---0-0-0---0---0-0-53--0---0---0-0-0---0---0-0--|
    
    E|-------------------------------------------------------------|
    B|-------------------------------------------------------------|
    G|-------------------------------------------------------------|
    D|-5-/-7---7---7---7-7-7---7---7-7-----------------------------|
    A|-5-/-7---7---7---7-7-7---7---7-7-----------------------------|
    E|-3-/-5---5---5---5-5-5---5---5-5-----------------------------|
    
    Du
    Du…
  • Fm                  G#            C
    Die Tranen greiser Kinderschar …
    Ich zieh sie auf ein weisses Haar …
    Fm                    G#          C
    Werf in die Luft die nasse Kette,
    Und wunsch mir, dass ich eine Mutter hatte -
    Keine…
  • 1||--------------------------------
    2||--3---1-------------------------
    3||----------3---2---0---0---2---2-
    4||-0-0-0-0-0-0-0-0-0-0-0-0-0-0-0-0
    5||1---1---1---1---0---0---0---0---
    6||--------------------------------
    
    продолжение...
    ----------------------------------|
    ----------------------------------|
    --3---2---0-----------------------|
    -0-0-0-0-0-0--3----0-------0---0--|
    -------------5-5--0-0-0-0-0-0-0-0-|
    3---3---3---3----0---0-9-0---0---0|
    
    Дальше…
  • Tuning: standart
    
    Main Riff: (repeat many times ^^)
    |-----------------------|-----------------------|
    |-----------------------|-----------------------|
    |--------0--------------|-----------3-----------|
    |-----------2-----------|--------2--------------|
    |-----2-----------------|-----2-----------------|
    |--0--------------------|--0--------------------|
    
    2nd…
  • Standard Tuning (low to high): E-A-D-G
    Speed: 105 bpm
    
    
    0:09-0:26 [Intro/Chorus]
    
    
    -------1-+-2-+-3-+-4-+--|--1-+-2-+-3-+-4-+--|--1-+-2-+-3-+-4-+--|--1-+-2-+-3-+-4-+--|
    ------------------------|-------------------|-------------------|-------------------|
    4-----------------------|-------------------|-------------------|----------2--------|
    4------4---2-2-2-2-2-2--|--4---5---2-2-2-2--|--4---2-2-2-2-2-2--|--4---5-------5----|
    ------------------------|-------------------|-------------------|-------------------|
    
    Repeat…
  • Tuning: D-A-D-G-B-E
    
    Chorus:
    e|------------------------------------------------|
    B|------------------------------------------------|
    G|------------------------------------------------|
    D|-2--2--2--2--2--2--2--2--9--9--9--9--7--7--7--7-|
    A|-2--2--2--2--2--2--2--2--9--9--9--9--7--7--7--7-|
    E|-2--2--2--2--2--2--2--2--9--9--9--9--7--7--7--7-|
    
    e|--------------------------------------------------|
    B|--------------------------------------------------|
    G|--------------------------------------------------|
    D|-2--2--2--2--2--2--2--2--9--9--9--9--7--7--7--0-7-|
    A|-2--2--2--2--2--2--2--2--9--9--9--9--7--7--7--0-7-|
    E|-2--2--2--2--2--2--2--2--9--9--9--9--7--7--7--0-7-|
    
    Bridge:
    This…
  • G     A#    C     D
    
    E|-5-| |-1-| |-0-| |-3-|
    B|-5-| |-3-| |-1-| |-2-|
    G|-0-| |-3-| |-0-| |-3-|
    D|-0-| |-3-| |-2-| |-0-|
    A|-5-| |-1-| |-3-| |-0-|
    D|-5-| |---| |---| |-0-|
    
    акустическое начало/конец
    
    G A# C D
    
    G A# C
    
    гланый…
  • Основной ход:
    
    E|-4-4-4-4-4-4-4-4-4-4-7-9-10-|
    A|-4-4-4-4-4-4-4-4-4-4-7-9-10-|
    D|-2-2-2-2-2-2-2-2-2-2-5-7-8--|
    
    E|4/-7-7-7-7-7-7-7-7-9-9-9-9-9-9-9-9-10-10-10-10-10-10-10-10-|
    A|4/-7-7-7-7-7-7-7-7-9-9-9-9-9-9-9-9-10-10-10-10-10-10-10-10-|
    D|2/-5-5-5-5-5-5-5-5-7-7-7-7-7-7-7-7-8—-8--8--8--8--8--8--8--|
    
    Kann…
  • INTRO:
    A|-----7--------|
    E|-----5--------|
    
    VERSE(BASS):
    E|---34-34-34-34-66---|
    
    Chorus:
    A|--5/6-5/6-5/6-5/6--8--|
    E|--3/4-3/4-3/4-3/4--6--|
    
    D|--7-7-6-5-----|
    A|--5-5-4-3-----|
    
    VERSE:
    Getadelt wird wer Schmerzen kennt
    Vom…
  • Вступление:Hmsus2 F#m  G7 Em\H  
    
    G           Hm          
    Die Nacht öffnet ihren Schoß
    Das Kind heißt Einsamkeit
    Es ist kalt und regungslos
    Ich weine leise in die Zeit
    Ich weiß nicht wie du heißt
    Doch…
  • E||-----------------------------|------------------------------|
    B||-----------------------------|------------------------------|
    G||*---------2---------5------5-|-----------------------------*|
    D||*---------2---------5------5-|---------2----------5-----5--*|
    A||--0-0-0-0-0-0-0-0-0-3--0-0-3-|---------2----------5-----5---|
    E||-----------------------------|-0-0-0-0-0--0-0-0-0-3-0-0-3---|
    
    
    E||--------------|--------------|
    B||--------------|--------------|
    G||--5-----------|--4-----------|
    D||--5-----------|--4-----------|
    A||--3-----------|--2-----------|
    E||--------------|--------------|
    
    E||--------------|--------------|--------------|---------------|
    B||--------------|--------------|--------------|---------------|
    G||--------------|--------------|--5-----------|--4------------|
    D||--5-----------|--5-----------|--5-----------|--4------------|
    A||--5-----------|--5-----------|--3-----------|--2------------|
    E||--3-----------|--3-----------|--------------|---------------|
    
    E||--------------|--------------|
    B||--------------|--------------|
    G||--9-----------|--6----7--9---|
    D||--9-----------|--------------|
    A||--7-----------|--------------|
    E||--------------|--------------|…
  • F#m
    Ich will dass ihr mir vertraut
    Cm+1/5
    Ich will dass ihr mir glaubt
    C
    Ich will eure Blicke sp?ren
    F#m
    Ich will jeden Herzschlag kontrollieren
    
    G
    Ich will eure Stimmen h?ren
    A
    Ich will die Ruhe st?ren
    G
    Ich will dass ihr…
  • Intro
    4|-4--4--4-5--4-----5--4-|
    5|-2--2--2-3--2--22-3--2-|
    6|-----------------------|
    
    4|-------------------------------------------------------------|
    5|------------------2------------------------------------------|
    6|000-0-0-000-0-0-000-0-0-0-0-0-000-0-0-000-0-0-000-0-0-000000-|
    
    4|-2-2-2-2-2-2-----------2-|
    5|-2-2-2-2-2-2-----------2-|
    6|-0-0-0-0-0-0-000000000-0-|
    
    
    Riff…
  • riff:
    1|-------------------------------|-------------
    2|-------------------------------|-------------
    3|-------------------------------|-1010101010--
    4|--7--8--7--5~~7--8--7--5~~7----|-1010101010--
    5|--7--8--7--5~~7--8--7--5~~7----|-8-8-8-8-8---
    6|--5--6--5--3~~5--6--5--3~~5----|-------------
    
    BASS
    1|------------------
    2|------------------
    3|------------------
    4|-5-6-5-3~5-6-5-3~5
    
    Wollt…
  • Intro:
    Gm - Ebm - Bb - Cm (repeated the whole song)
    
        Gm
    Ich liebe dich
        Ebm
    Ich liebe dich nicht
        Bb
    Ich liebe dich nicht mehr
        Cm
    Ich liebe dich nicht mehr
    
        Gm
    Ich liebe dich nicht mehr…
  • Intro (keyboard part) is on 6/8, don't get confused, the band hit is Dm.
    
    Intro: 
    Dm
    
    Verse:
    
    Nur für mich bist du am Leben
    Dm                             C
    Ich steck' dir Orden ins Gesicht
    Dm…
  • Intro Bass (Oli Riedel) + Till
    
        F I--------------------------------------------------------------I
        C I--------------------------------------------------------------I
        G I--------------------------------------------------------------I…
  • Tuning: DAFCGC
    
    b = Bend (1/4)
    ~ = Vibrato
    
    Both guitars (Richard Z Kruspe-Bernstein and Paul H Landers)
    play the same.
                                                               
    D||------|------|------|------|------|------|------|------|
    A||------|------|------|------|------|------|------|------|
    F||------|------|------|------|------|------|------|------|
    C||------|------|------|------|------|------|------|------|
    G||------|------|------|------|------|------|------|------|
    C||------|------|------|------|------|------|------|------|
    
    
    Chorus:…
  • Standard Tuning
    
    Intro:
    Eb|-----5---------------------------|
    Bb|-------------8-------6---8---5---|
    Gb|---5---5---5---5---5-------------|
    Db|-7-------7-------7-----7---7-----|
    Ab|---------------------------------|
    Eb|---------------------------------|…
  • intro
    
    e|----------------------------------------------------------------------|
    B|----------------------------------------------------------------------|
    G|--5-------------------------------------------------------------------|
    D|--6-------------------------------------------------------------------|
    A|--6------0---4-----x--4p3—--4---x--4---x---4p3—--4p3------------------|
    E|--4------0---4-----x--4p3---4---x--4---x---4p3---4p3------------------|
    
    Esto…
  • Все песни RAMMSTEIN играются на гитаре с расстроенной 6-ой
    струной. Надо чтобы 6–я звучала в унисон с 4–ой.
    Проигрыш: 3 раза.
    4 |       3          5          6       5    3|
    5 |       3          5          6       5    3|
    6…
  • Intro
    G|--------------------------|---10--10--10--10/-12--12--12--7--|
    D|--8--8--8--8--8--8--8--8--|---10--10--10--10/-12--12--12--7--|
    A|--8--8--8--8--8--8--8--8--|---8---8---8---8/--10--10--10--5--|
    D|--8--8--8--8--8--8--8--8--|----------------------------------|
    
    G|--7--7--7--7--7/-5--5/-4--|
    D|--7--7--7--7--7/-5--5/-4--|
    A|--5--5--5--5--5/-3--3/-2--|
    D|--------------------------|…
  • Intro
    
    e|-------------------------------|--------------------------
    b|-------------------------------|--------------------------
    g|---------7h8-------7h8-----7h8-|---------7h8-------7h8----
    D|-0-0-0-0-7h8-0-0-0-7h8-0-0-7h8-|-0-0-0-0-7h8-0-0-0-7h8----
    A|-------------------------------|----------------------0-0-
    E|-------------------------------|--------------------------
    
    e|-------|
    b|-------|
    g|-5h7---|
    D|-5h7---|
    A|-------|
    E|-------|
    
    Verse
    
    e|-------------------------------------------|
    b|-------------------------------------------|
    g|-7--5--7--5--7--5--7--9--7-10--------------|
    D|-7--5--7--5--7--5--7--9--7-10--------------|
    A|-5--3--5--3--5--3--5--7--5--8--------------|
    E|---0--0--0--0--0--0--0--0------------------|
    
    It…
  • Tuning: Drop D whole step down(CGCFAD)
    
    (intro/verse)
    D|---------------------------------------------------------------------------|
    A|---------------------------------------------------------------------------|
    F|---------------------------------------------------------------------------|
    C|---------------------------------------------------------------------------|
    G|--3-0-----3-0-3-0----3-0-------3-0-3-0-0-0---------------------------------|
    C|--3-0-----3-0-3-0----3-0-------3-0-3-0-0-0---------------------------------|
    (PM).…
  • Tuning: C-G-C-F-A-D
    
    Wer wartet mit Besonnenheit
    Der wird belohnt? zur rechten zeit
    Nun das Warten hat ein ende
    Leiht euer ohr einer legende...
    
    Chorus:
    
      RAMM!!!            STEIN!!!
    D|----------------------------------------|
    A|----------------------------------------|
    F|----------------------------------------|
    C|-2----7----5----3-----2----7----9--5--7-|
    G|-2----7----5----3-----2----7----9--5--7-|
    C|-2----7----5----3-----2----7----9--5--7-|…
  • Вступление: (играется на клавишных)
    
        Cm            Fm        Cm        Fm       Gm        Fm      
     e|-------------|----------|---------|--------|---------|--------|-
     h|-------------|----------|---------|--------|---------|--------|-…
  • Intro
    D|------------------------------------------|
    A|------------------------------------------|
    F|------------------------------------------|
    C|------------------------------------------|
    G|--12------11---------12------11----12/15--|
    C|------------------------------------------|
    
    D|--------------------------------------------|
    A|--------------------------------------------|
    F|--------------------------------------------|
    C|--------------------------------------------|
    G|--12------11---------12------11------------|
    C|--------------------------------------------|
    
    
    Clean…
  • Intro a
    D|-----------------|-----------------|-----------------|----------------|
    A|-----------------|-----------------|-----------------|----------------|
    E|-000-000-0-0-3-1-|-000-000-0-0-3-1-|-000-000-0-0-3-1-|-000-000-0-0-3-1|
    
    D|-----------------|-----------------|-----------------|-----------3-5-3|
    A|-----------------|-----------------|-----------------|-----------3-5-3|
    E|-000-000-0-0-3-1-|-000-000-0-0-3-1-|-000-000-0-0-3-1-|-000-000-0-1-3-1|
    
    D|-----------------|-----------------|-----------------|----------------|
    A|-----------------|-----------------|-----------------|----------------|
    E|-000-000-0-0-3-1-|-000-000-0-0-3-1-|-000-000-0-0-3-1-|-000-000-0-0-3-1|
    
    D|-----------------|-----------------|-----------------|-----------3-5-3-5-|
    A|-----------------|-----------------|-----------------|-----------3-5-3-5-|
    E|-000-000-0-0-3-1-|-000-000-0-0-3-1-|-000-000-0-0-3-1-|-000-000-0-1-3-1-3-|
    
    Er…
  • Rammst+in’s new tuning is C G C F A D (since Reise Reise)
    But this tabulator is written for standard (E A D G B E)
    
    
    Acoustic Guitar
    Main Riff
    3 times
    |----------------------|------------------------|
    |----------------------|------------------------|
    |.-5-x-x-6-x-x-8-x-x--.|-5-x-x-6-x-x-8/10-10-10-|
    |.-5-x-x-6-x-x-8-x-x--.|-5-x-x-6-x-x-8/10-10-10-|
    |--3-x-x-4-x-x-6-x-x---|-3-x-x-4-x-x-6/8--8--8--|
    |----x-x---x-x---x-x---|---x-x---x-x------------|
    
    Solo…
  • Em                    G
    Wer gutes tut, dem wurd` vergeben
    F#m
    So seid recht gut auf allen Wegen
    Em                     G
    Dann bekommt ihr bald Besuch –
    F#m
    Wir kommen mit dem Liederbuch
    
    Em                       G
    Wir sind…
  • Riff 1: (x2)
    G:---------------------|---------------------|---------------------|-----------------------|
    D:---------------------|---------------------|---------------------|-----------------------|
    A:---------------------|---------------------|---------------------|-----------------------|
    D:-1--h3p1h3--1-h3p1h3-|-1--h3p1h3--1-h3p1h3-|-1--h3p1h3--1-h3p1h3-|-1--h3p1h3--1-h3p1h3-6-|
    
    Riff…
  • Intro
    D|-----------------------------------|
    A|-----------------------------------|
    F|*---------------------------------*|
    C|*-2-0-2---2-0-2-5-2-0-2---2-0-2---*|x3
    G|--2-0-2---2-0-2-5-2-0-2---2-0-2----|
    C|--2-0-2---2-0-2-5-2-0-2---2-0-2----|
    
    D|-----------------------------------|
    A|-----------------------------------|
    F|-----------------------------------|
    C|--2---2---2-0-2-5-2-0-2---2-0-2----|
    G|--2---2---2-0-2-5-2-0-2---2-0-2----|
    C|--2---2---2-0-2-5-2-0-2---2-0-2----|
    
    D|-----------------------------------|
    A|-----------------------------------|
    F|*---------------------------------*|
    C|*-2-0-2---2-0-2-5-2-0-2---2-0-2---*|x2
    G|--2-0-2---2-0-2-5-2-0-2---2-0-2----|
    C|--2-0-2---2-0-2-5-2-0-2---2-0-2----|
    
    D|---------------------------------------------------------------------|
    A|---------------------------------------------------------------------|
    F|---------------------------------------------------------------------|
    C|--2-0-2---2-0-2---2-0-2---2-0-2---2-0-2---2-0-2---2-0-2---2-0-2---2--|
    G|--2-0-2---2-0-2---2-0-2---2-0-2---2-0-2---2-0-2---2-0-2---2-0-2---2--|
    C|--2-0-2---2-0-2---2-0-2---2-0-2---2-0-2---2-0-2---2-0-2---2-0-2---2--|
    
    Pre-chorus
    D|-----------------------------------|
    A|-----------------------------------|
    F|*---------------------------------*|
    C|*---------2-0-2-5-2-0-2---2-0-2---*|x3
    G|----------2-0-2-5-2-0-2---2-0-2----|
    C|----------2-0-2-5-2-0-2---2-0-2----|
    
    D|-----------------------------------|
    A|-----------------------------------|
    F|-----------------------------------|
    C|-----------------------------------|
    G|----------2-2-2-2-2-2-2-2-2-2-2-2--|
    C|----------2-2-2-2-2-2-2-2-2-2-2-2--|
    pm…
  • Mann sieht ihn um die Kirche schleichen 
    seit einem Jahr ist er allein 
    Die Trauer nahm ihm alle Sinne 
    schlaft jede Nacht bei ihrem Stein 
    
    Dort bei den Glocken schlaft ein Stein 
    und ich alleine kann ihn lesen 
    und auf…
  • Intro:
    
      E|-------------------------|
      B|-------------------------|
      G|-------------------------|
      D|--3\2-2--3\2-2---3\23\2--|
      A|--3\2-2--3\2-2---3\23\2--|
      D|--3\2-2--3\2-2---3\23\2--|
    
    Wilkommen...in der…
  • Tuning: C-G-C-F-A-D
    
    Intro riff and start:
    D|-------------------------------------------------------------------|
    A|-------------------------------------------------------------------|
    F|*-----------------------------------------------------------------*|
    C|*-0-------0-----0-0-------1-----0-0-------0-----0-0-------1-----0-*|
    G|--0-0-0-0-0-0-0-0-0-0-0-0-1-0-0-0-0-0-0-0-0-0-0-0-0-0-0-0-1-0-0-0--|
    C|--0-0-0-0-0-0-0-0-0-0-0-0-1-0-0-0-0-0-0-0-0-0-0-0-0-0-0-0-1-0-0-0--|…
  • Dm Am Gm F A
     
    Dm               Am 
    Ich werde in die Tannen geh'n,
    Gm                  F       A
    dahin, wo ich sie zuletzt geseh'n,
    Dm                       Am
    doch der Abend wirft ein Tuch auf's Land
    Gm…
  • **Drum Intro**
    
      D|-----------------|
      A|-----------------|
      F|-----------------|
      C|-----------------|
      G|-------/11~------|
      C|--6-5------------|
    
    Guitar 1                                        -
      D|------------------------------------|…
  • beggining guitar riff
    E|----------|
    B|----------|
    G|----------|
    D|--2----7*-|
    A|--2-------|
    E|--0-------|
    Let me see you stripped...
    E|-------------|
    B|-------------|
    G|--7--2--5----|
    D|--7--2--5--2-|
    A|--5--0--3--2-|
    E|-----------0-|
    Guitar…
  • Intro (Clean)
    
    e|-----------------------|
    B|-----------------------|
    G|-----------------------|
    D|-----------------------| x3
    A|--------5---5---5-8p5--|
    E|--0-0-0-0-0-0-0-0-0-0--|
        . . . . . . . . 
    
    
    e|---------------------|
    B|---------------------|
    G|---------------------|
    D|------------------3--|
    A|--------5---5---5-5--|
    E|--0-0-0-0-0-0-0-0----|…
  • Intro: C#m | E   | G#m | F#m
           C#m | C#m | H   | H
    
    C#m
         Auch auf den Wellen wird gefochten
    Cm/G
         Wo Fisch und Fleisch zur See geflochten
         Der eine sticht die Lanz' im Heer
         Der andere wirft sie in das…
  • Er ist fromm und sehr sensibel
    an seiner Wand ein Bild des Herrn
    er wischt die Flecken von der Bibel
    das Abendmahl verteilt er gern
    
    D|--5-5-2--3-3-2--5-5-2--3-3-2--5-5-2--3-3-2-|
    A|--5-5-2--3-3-2--5-5-2--3-3-2--5-5-2--3-3-2-|
    E|--3-3-0--1-1-0--3-3-0--1-1-0--3-3-0--1-1-0-|
    
    D|-5-5-2--3-3-2--5-5-2--3-3-2--5-5-|
    A|-5-5-2--3-3-2--5-5-2--3-3-2--5-5-|
    E|-3-3-0--1-1-0--3-3-0--1-1-0--3-3-|
    
    D|-2------2------2-------2------3-3-|
    A|-2------2------2-------2------3-3-|
    E|-0-0000-0-0000-0--0000-0-0000-1-1-|
    
    D|-2------2------2-------2------5-5-|
    A|-2------2------2-------2------5-5-|
    E|-0-0000-0-0000-0--0000-0-0000-3-3-|
    
    Er…
  • Intro a (four times)
    D|-----4h5-----4h5-----4h5--5h4-|
    A|-----2h3-----2h3-----2h3--3h2-|
    E|-0-0-----0-0-----0-0----------|
    
    Rammstein
    Ein Mensch brennt
    Rammstein
    Fleischgeruch liegt in der Luft
    Rammstein
    ein Kind stirbt
    Rammstein
    die…
  • drop D tuning
    
       Riff 1 	               Riff 2
     e-----------------------     ----------------------
     b-----------------------     ----------------------
     g-----------------------     ----------------------
     d------------5--(5)--4--…
  • PART I
    
    e---------------------------------------------
    b---------------------------------------------
    g---------------------------------------------
    d------6------8------2------------------------
    a------6------8------2------------------------
    d------6------8------2------------------------
    
    
    e---------------------------------------------
    b---------------------------------------------
    g---------------------------------------------
    d------6------8------2------9--8--------------
    a------6------8------2------9--8--------------
    d------6------8------2------9--8--------------
    
    PART…
  • Dm |C |Am |F Em| 
    
    
    Dm       C 
    Too big, too small,
    Am               F      G
    Size does matter after all.
    Dm        C
    Zu groß, zu klein,
    Am
    Er könnte etwas größer sein.
    
    Mercedes-Benz und Autobahn,
    Alleine…
  • Dm               Gm
    Nun liebe Kinder gebt fein acht
    B(VI)              C
    Ich bin die Stimme aus dem Kissen
    Dm                 Gm
    Ich hab euch etwas mitgebracht
    B                 C
    Hab es aus meiner Brust gerissen
    
    Mit diesem…
  • (Use Palm Muting)
    Vers:
    G-----------------------|
    D-----------------------|
    A-----------------------|
    E-3-5555555-6-555-3-555-|
    
    G-----------|
    D-----------|
    A-----------|
    E-3-5555555-| 2x
    
    Chords & Interlude,…
  • Verse & Chorus
    
    |-------------------------------|
    |-------------------------------|
    |-------------------------------|
    |-1-00-1-00-1h3-1-00-1-00-1h3---| 
    repeat several times (listen to the song)
    
    Bridge (“Tiefer, Tiefer…”…
  • C5      D5	   E#5    G#5
    |------------------------------
    |------------------------------
    |--5-------7--------10-----4---
    |--5-------7--------10-----6---
    |--3-------5--------8------6---
    |--3-------5--------8------4---
    
    Interlude…
  • main riff:
    3)           9   8    10   9  12    9    9    10    9>7
    4)           9   8    10   9  12    9    9    10    9>7
    5)           7   6     8   7  10    7    7     8    7>5
    6) 0 0 0
    
    INTRO: main riff x4
    
    1) 8 7 0…
  • Все песни RAMMSTEIN исполняются не на стандартном 6-ти струнном
    строе, а с опущенной на тон 6-й струной. Для того, чтобы
    настроить свою гитару так, нужно зажать 6-ю струну на 7-м (а не
    на 5-м) ладу , и добиться одинакового…
  • Riff 1
    D|-2---2-2-2---2-2-2-2-2---2-2-2-2-|
    A|-2---2-2-2---2-2-2-2-2---2-2-2-2-| X3
    D|-2---2-2-2---2-2-2-2-2---2-2-2-2-|
    
    Riff 2
    D|-2---2-2-2---2-2-2-2-0---0-0-0-0-|
    A|-2---2-2-2---2-2-2-2-0---0-0-0-0-| X1
    D|-2---2-2-2---2-2-2-2-0---0-0-0-0-|
    
    Sind…
  • -Easy Song Tab-
    
    
    00:13 Intro 
    g|----------------------|     
    d|----------------------|     
    a|----------------------|  
    c|-4-11-011-0100-1-00-1-| 12x
    
    00:47 Verse1
    g|----------------------|     
    d|----------------------|…
  • After Till first talks:
    G|--------|
    D|---3----|
    A|---3----|
    D|---1----|
    
    Intro/Verse:
    F5, G#5
    
    Chorus:
    G#5 - hoppe hoppe Reiter
    D5- und kein  Engel.....
    C5- mein Herz.....
    Bb5- nur der Regen...
    
    F5, E5
    
    Back to chorus
    
    Ein…
  • E|-10----------------------------------------------------------|
    B|-------10----13----10----12----8----10-----------------------|
    
    E|-10----------------------------------------------------------|
    B|-------10----13----10----12----8-----------------------------|
    G|------------------------------------7------------------------|
    
    G|-------------------------------------------------------------|
    D|-------------------------------------------------------------|
    A|3-5-----6-5-----3-5---3-5---6-5-3-5-----6-5-----3-5---3-5-8-8|
    D|----0-0-----0-0-----0-----0---------0-0-----0-0-----0--------|
    
    E|-------------------------------------------------------------|
    B|-------------------------------------------------------------|
    G|5-7-----9-7-----5-7---5-7---9-7-5-7-----9-7-----5-7---5-7-x-x|
    D|5-7-----9-7-----5-7---5-7---9-7-5-7-----9-7-----5-7---5-7-x-x|
    A|3-5-----6-5-----3-5---3-5---6-5-3-5-----6-5-----3-5---3-5-x-x|
    D|----0-0-----0-0-----0-----0---------0-0-----0-0-----0--------|
    
    Wer…
  • Drop D tuning
    |-e-|
    |-B-|
    |-G-|
    |-D-|
    |-A-|
    |-D-|
    
    Verse Riff:
    |-----------------------------------------------|
    |-----------------------------------------------|
    |-----------------------------------------------|
    |-----------------------------------------------|
    |---2-----2---2-----2-----2---2-----2-----0-1-3-|
    |-2-2-2-2-2-2-2-2-2-2-2-2-2-2-2-2-2-2-2-2-0-1-3-|…
  • e|-------------|--------
    b|-*-----------|--------
    g|-------------|-4^bend-
    D|-------------|--------
    A|-*-----3/4-*-|--------
    E|---0-0-3/4---|--------
    
    e------------------------
    b------------------------
    g------------------------
    D-1-----6-5-3----------5-
    A-1-----6-5-3--------3-5-
    E-1-----6-5-3--------3-5-
    
    Du…
  • Intro:
    D------------------------|
    D------------------------|
    A------------------------|
    D|-0-0-0-0-0-0-53---0-0-0-0-0h1--0--|
      pm.........       pm.....
    
    
    После intro
    
    D-------------------------|
    D|-0-0-0-0-0-0-53---0-0-0-0-0h1--0---|
    A|-0-0-0-0-0-0-53---0-0-0-0-0h1--0---|
    D|-0-0-0-0-0-0-53---0-0-0-0-0h1--0---|…
  • Cm               G#
    Ich habe Plaene, grosse Plaene 
    Ich baue dir ein Haus 
    Jeder Stein ist eine Traene 
    Und du ziehst nie wieder aus 
    Ja, ich baue ein Haeuschen dir 
    Hat keine Fenster, keine Tuer 
    Innen wird es dunkel sein…
  • Проигрыш:
    Em
    Em | C H7 | 4 раза
    Em
    
    Em       C             Hm7
    Ich war ganz allein zu Haus
    Die Eltern waren beide aus
    Da sah ich plotzlich vor mir stehen
    Ein Schachtelchen nett anzusehen
    
    Ei sprach ich wie schon und…
  • Standard Tuning
              
              Intro
              
              e-------------------
              B-------------------
              G-10--7--------8--7-
              D-10--7--------8--7-
              A--8--5-X-X-X--6--5-
              E-------------------…
  • Вступление
    
    4-ая |---2---2---2---3-|---2---2---2---3-|
    5-ая |-0---0---0---0---|-0---0---0---0---|
    
    4-ая |--2---2---2---3-2-0------------|
    5-ая |0---0---0---0-------3-2-3-2-0-2|
    
    Куплет
    
    5-ая |-0--2--3--2--5---3--2--0--2--3--2--3---2---|
    
    После…
  • Tuning: Drop D
    [E-B-G-D-A-D]
    
    
    
    INTRO & CHORUS
    
    Both Guitars
    E||------------------------------|-------------------------------|
    B||------------------------------|-------------------------------|
    G||*-----------------------------|-------------------------------|
    D||*-6----------6----------6--7--|--6----------6----------6------|
    A||--6----------6----------6--7--|--6----------6----------6------|
    D||--6--0-0-0-0-6--0-0-0-0-6--7--|--6--0-0-0-0-6--0-0-0-0-6--0-0-|
    PM…
  • Начало и Припев:
    |-------------------------|
    |-------------------------|
    |-------------------------|
    |-0-2--0-2--0-2--0-2/7-0--|
    |-0-2--0-2--0-2--0-2/7-0--|
    |-0-2--0-2--0-2--0-2/5-0--|
    
    Куплет:
    |----------------|------|
    |----------------|------|
    |----------------|------|
    |-0-0----0-0-0-0-|-5^r--|
    |-0-0----0-0-0-0-|------|
    |-0-0----0-0-0-0-|------|
    
    P.S.Это…
  • Drop-D tuning (low to high: D,a,d,g,b,e)
    M,PM=Palm Mute
    
    
    Intro Verse
    
    Riff 1a
    ---------------------------------|
    ---------------------------------|
    ---------------------------------|
    -0---3---2---3---5---3---0-2-3-0-|
    -0---3---2---3---5---3---0-2-3-0-|
    -0-0-3-0-2-0-3-0-5-0-3-0-0-2-3-0-|…
  • Verse: (x4)(1:02)
    |----------------|----------------|
    |----------------|----------------|
    |----------------|----------------|
    |r-000r-0000.000-|r-00r-00r-11r-11|
    
    Pre-chorus 1: (1:26)
    |----------------|----------------|----------------|----------------|
    |----------------|----------------|----------------|----------------|
    |r-000r-0000.000-|r-000.002-22----|r-000r-0000.000-|r-000.002-r-R---|
    |----------------|------------3-33|----------------|----------------|
    
    Verse…
  • Drop D tuning
    |-e-|
    |-B-|
    |-G-|
    |-D-|
    |-A-|
    |-D-|
    
    Keyboard Intro:
    |--------------------|--------------------|
    |--------------------|--------------------|
    |--------------------|--------------------|
    |-2--2-2-2--2--2-4-5-|-2--2-2-2--2--2-0---|
    |--------------------|------------------2-|
    |--------------------|--------------------|
    
    Riff…
  • Tuning: C-G-C-F-A-D
    Space between notes is made for a better understanding.
    Played with softly-tight kinda' distortion.
    Intro/verse:
    D|----------------------------------------------------------------------------------------------|
    A|----------------------------------------------------------------------------------------------|
    F|--------------------------------------------------------------------------------------------|
    C|--------------------------------------------------------------------------------------------|
    G|----------------------------------------------------------------------------------------------|
    C|--12b13--0-0-0-0--10-12-13--0-0-0--10-13-12--0--12b13--0-0-0-0-0--13-13-13-10-10-10-10-11-11--|
    Chorus:
    D|----------------------------------------------------------------------------------------------
    A|----------------------------------------------------------------------------------------------
    F|---------------------------------------------------------------------------------------------
    C|---------------------------------------------------------------------------------------------
    G|----------------------------------------------------------------------------------------------
    C|--12b13--0-0-0-0--10-12-13--0-0-0--10-13-12--0--12b13--0-0-0-0-0--13-13-13-10-10-10-10-11-11--
    D|----------------------------------------------------------------------------------------------|
    A|----------------------------------------------------------------------------------------------|
    F|---------------------------------------------------------------------------------------------|
    C|---------------------------------------------------------------------------------------------|
    G|----------------------------------------------------------------------------------------------|
    C|--12b13--0-0-0-0--10-12-13--0-0-0--10-13-12--0--3h5--5-5--3h5--5-5--3h5--5-5--3h5--5-5--------|
    Bridge:
    D|------------------------------------------------------------------------------------|
    A|------------------------------------------------------------------------------------|
    F|------------------------------------------------------------------------------------|
    C|--0h1---------0h1---------0h1------x3…
  • Tuning: low to high - c# g# c# f# a# d#
                       
              Riff1 intro (guitar 1)
              |----------------------------------------------------|
              |----------------------------------------------------|…
  • intro
              ------------
              ------------
              ------------
              -7-10-7-8/5-
              -7-10-7-8/5-
              -7-10-7-8/5-…
Наверх