Аккорды Rammstein - Waidmanns Heil

Добавлено: @romashka
Дата добавления: 29 Марта 2014г.
Рейтинг:
0.0
Просмотров: 541
Транспонировать - +
Standard Tuning (low to high): E-A-D-G
Speed: 105 bpm


0:09-0:26 [Intro/Chorus]


-------1-+-2-+-3-+-4-+--|--1-+-2-+-3-+-4-+--|--1-+-2-+-3-+-4-+--|--1-+-2-+-3-+-4-+--|
------------------------|-------------------|-------------------|-------------------|
4-----------------------|-------------------|-------------------|----------2--------|
4------4---2-2-2-2-2-2--|--4---5---2-2-2-2--|--4---2-2-2-2-2-2--|--4---5-------5----|
------------------------|-------------------|-------------------|-------------------|

Repeat 4x

0:27-0:45 [Verse]

-------1-+-2-+-3-+-4-+--|--1-+-2-+-3-+-4-+--|
------------------------|-------------------|
4-----------------------|-------------------|
4------2---2-2-2-2-2-2--|--4---2-2-2-2-2-2--|
------------------------|-------------------|

Repeat 8x

0:45-0:53

Pause

0:53-1:10 [Chorus]


-------1-+-2-+-3-+-4-+--|--1-+-2-+-3-+-4-+--|--1-+-2-+-3-+-4-+--|--1-+-2-+-3-+-4-+--|
------------------------|-------------------|-------------------|-------------------|
4-----------------------|-------------------|-------------------|----------2--------|
4------4---2-2-2-2-2-2--|--4---5---2-2-2-2--|--4---2-2-2-2-2-2--|--4---5-------5----|
------------------------|-------------------|-------------------|-------------------|

Repeat 4x

1:10-1:12 [Interlude]

-------1-+-2-+-3-+-4-+--|--1-+-2-+-3-+-4-+--|
------------------------|-------------------|
4-----------------------|-------------------|
4------2---2-2-2-2-2-2--|--4---2---2---2----|
------------------------|-------------------|

1:12-1:49 [Verse]

-------1-+-2-+-3-+-4-+--|--1-+-2-+-3-+-4-+--|
------------------------|-------------------|
4-----------------------|-------------------|
4------2---2-2-2-2-2-2--|--4---2-2-2-2-2-2--|
------------------------|-------------------|

Repeat 14x

1:50-1:56

Pause

1:57-2:14 [Chorus]

-------1-+-2-+-3-+-4-+--|--1-+-2-+-3-+-4-+--|--1-+-2-+-3-+-4-+--|--1-+-2-+-3-+-4-+--|
------------------------|-------------------|-------------------|-------------------|
4-----------------------|-------------------|-------------------|----------2--------|
4------4---2-2-2-2-2-2--|--4---5---2-2-2-2--|--4---2-2-2-2-2-2--|--4---5-------5----|
------------------------|-------------------|-------------------|-------------------|

Repeat 4x

2:15-2:32 [Bridge]


-------1-+-2-+-3-+-4-+--|
------------------------|
4-----------------------|
4------4---4---4-4-4-4--|
------------------------|

Repeat 12x

2:33-2:50

Pause

2:50-3:30 [Outro]


-------|-------1-+-2-+-3-+-4-+--|--1-+-2-+-3-+-4-+--|--1-+-2-+-3-+-4-+--|--1-+-2-+-3-+-4-+--|
-------|------------------------|-------------------|-------------------|-------------------|
-------|-4----------------------|-------------------|-------------------|----------2--------|
--12/--|-4-----4---2-2-2-2-2-2--|--4---5---2-2-2-2--|--4---2-2-2-2-2-2--|--4---5-------5----|
-------|------------------------|-------------------|-------------------|-------------------|

Repeat 8x
Наверх