Аккорды Scorpions - Send Me an Angel

Добавлено: @romashka
Дата добавления: 20 Апреля 2019г.
Рейтинг:
0.0
Просмотров: 23
Транспонировать - +
Intro: Em Cmaj7 D Bm Em Cmaj7 D }x4 

Rhy. Fig. for Intro: playing 4 times
 Em          Cmaj7     D        Bm7       Em       Cmaj7       D
e|---0--------0---------------------------0---------0------------------------                     
B|-----0--------0-------3--------3----------0---------0-------------3--------     
G|-------0--------0-------2--------2----------0---------0------2---------2--- 
D|-2------------------------4--------4--2-------------------4-----4---4----4-
A|----------3--------5--------2-----------------3---------5------------------              
E|---------------------------------------------------------------------------

1st Verse:
   Em       Cmaj7     Em/B      Em/G     Em        Cmaj7     D
e|---0---------0---------0--------0---------0---------0----------------------
B|-----0---------0---------0--------0---------0---------0------------3-------
G|-------0---------0---------0--------0---------0---------0------2-------2---
D|-2-------------------------------------2---------------------4---4---4---4-
A|----------3---------2----------------------------3---------5---------------
E|------------------------------3--------------------------------------------

    Em       Cmaj7  Em/B   Em/G
The wise man said just walk this way
Em     Cmaj7          D
To the dawn of the light
    Em        Cmaj7       Em/B  Em/G
The wind will blow into your face
Em     Cmaj7           D
As the years pass you by
Em        Cmaj7      Em/B    Em/G
Hear this voice from deep inside
Em        Cmaj7           D
It's the call of your heart
Em         Cmaj7       Em/B     Em/G
Close your eyes and your will find
Em          Cmaj7        D
the passage out of the dark

Chorus: x2 (The 2nd time with * after the last E)
   F#m                 E
e|----------2-----------------------0-----------
B|-----2---------2----------0--------------0----
G|---2---2-----2---2-----1-----1--------1-----1-
D|-4-------------------2------------------------
A|----------------------------------------------
E|----------------------------------------------                                                      
                                                       
   C#m                   D           E
e|--------------------------------------------
B|------------2-------------------------------
G|------1----------1-----------2----------4---
D|----2---2------2---2-------4---4------6---6-
A|-4----------------------5----------7--------
E|--------------------------------------------
                           
     F#m       Dmaj7       E          C#m7
e|-*---2-----------2---------------------------
B|-------2-----------2--------5----------5-----
G|---------2-----------2--------4----------4---
D|---4----------------------------6----------6-
A|--------------5----------7----------4--------
E|---------------------------------------------                                     

F#m    E  C#m
Here I am
         D          E
Will you send me an angel
F#m    E C#m
Here I am
       D           E      * (F#m Dmaj7 E C#m7 -> only at 2nd time)
In the land of the morning star

Break: F#m Dmaj7 E | F#m Dmaj7 E C#m7 | F#m Dmaj7 E }x2

The Break is:
  F#m        Dmaj7   E     (play *2)   F#m      Dmaj7      E       C#m7
e|---2---------2-------------------------2---------2-----------------------
B|-----2---------2------------5------------2---------2-------5-------5-----
G|-------2---------2------4-------4----------2---------2-------4-------4---
D|-4--------------------6---6---6---6--4-------------------------6-------6-
A|-----------5--------7--------------------------5---------7-------4-------
E|-------------------------------------------------------------------------
                                                                     
The part F#m Dmaj7 E tab is the same at the beginning and end.

Verse 2: F#m Dmaj7 F#m/C# F#m/A F#m Dmaj7 E
e|---2--------2--------2--------2--------2---------2---------------------
B|-----2--------2--------2--------2--------2---------2------------5------
G|-------2--------2--------2--------2--------2---------2------4------4---
D|-4-----------------------------------4--------------------6---6--6---6-
A|----------5--------4--------------------------5---------7--------------
E|----------------------------5------------------------------------------

    F#m      Dmaj7   F#m/C#     F#m/A
The wise man said just find your place
F#m    Dmaj7        E
In the eye of the storm
F#m      Dmaj7   F#m/C#     F#m/A
Seek the roses along the way,
F#m    Dmaj7           E
Just beware of the thorns

Chorus:
   G#m             F#                D#m               F#
e|---------4---------------2--------------------------------------------
B|-----4-------4-------2-------2--------------2-------------------------
G|---4---4---4---4---3---3---3---3--------3-------3---------4-------6---
D|-6---------------4--------------------4---4---4---4-----6---6---8---8-
A|-----------------------------------6-----------------7--------9-------
E|----------------------------------------------------------------------

G#m   F# D#m
Here I am
         E           F#
Will you send me an angel
G#m   F# D#m
Here I am
        E           F#       Em
In the land of the morning star

Solo: Em Cmaj7 D Bm7 Em Cmaj7 D }x2 

Verse 3:
    Em       C         D         Bm
The wise man said just raise your hand
Em        C            D
And reach out for the spell
Em       C           D        Bm
Find the door to the promised land
Em     C            D
Just believe in yourself
Em        C          D       Bm
Hear this voice from deep inside
Em       C            D
It's the call of your heart
Em         C        D        Bm
Close your eyes and you will find
Em      C          D
the way out of the dark

Chorus:
F#m    E C#m
Here I am
         D          E
Will you send me an angel
F#m    E C#m
Here I am
       D          E       F#m
In the land of the morning star
comments powered by Disqus
Наверх