Аккорды Scorpions - White Dove

Добавлено: @romashka
Дата добавления: 26 Декабря 2020г.
Рейтинг:
0.0
Просмотров: 11
Транспонировать - +
e|-0---------------------1-----1------------------------|
B|--0--1---3-1-0-1------3-----3-----3--------1-----1----|
G|-------2---------2--2-----2-----2--------2-----2----2-|
D|--------------------------------------2-----2----2----|
A|------------------------------------0-----------------|
E|------------------------------------------------------|
 
e|-0---------------------1-----1------------------------|
B|--0--1---3-1-0-1------3-----3-----3-------------------|
G|-------2---------2--2-----2-----2---2-----------------|
D|------------------------------------2-----------------|
A|------------------------------------------------------|
E|------------------------------------------------------|
 
[Verse]
C                 G
A place without a name
Dm     Am
under a burning sky
C               G
There's no milk and honey here
Dm            Am
in the land of God
 
C       G
Someone holds a sign, it says:
Dm           Am
'We are human too'
C             G
and while the sun goes down,
Dm            Am
the world goes by
 
[Chorus]
C           G
White Dove, fly with the wind
Dm           Am
Take our hope under your wings
C
For the world to know
     G
That hope will not die
Dm               Am
When the children cry
 
[Verse]
C                G
Waves big like a house
Dm                   Am
They're stranded on a piece of wood
C           G
To leave in all behind
Dm      Am
To start again
C                 G
But, instead of a new life
Dm                Am
All they find is a door that's closed
C                     G
And they keep looking for
Dm            Am
A place called hope
 
[Chorus]
C           G
White Dove, fly with the wind
Dm           Am
Take our hope under your wings
C
For the world to know
     G
That hope will not die
Dm               Am
When the children cry
 
[Verse]
F                  Am
Can anyone tell me why
             Dm
the children of the world
        E
have to pay the price
 
[Verse]
C              G             Dm
And now you're telling me
               Am
You've seen it all before
C           G                Dm
I know that's right but still
             Am
it breaks my heart
C                Gm
Well, the golden lamb we've sent
Dm                  Am
makes us feel better now
C                 Gm          Dm
but you know it's just a drop
              Am
in a sea of tears
 
[Chorus]
C           G
White Dove, fly with the wind
Dm           Am
Take our hope under your wings
C
For the world to know
     G
That hope will not die
Dm               Am
When the children cry
 
C           G
White Dove, fly with the wind
Dm           Am
Take our hope under your wings
C
For the world to know
     G
That hope will not die
Dm               Am
When the children cry
Наверх