Аккорды Земфира - Доказано

Добавлено: @romashka
Дата добавления: 16 Марта 2013г.
Рейтинг:
0.0
Просмотров: 792
Транспонировать - +
Проигрыш Riff:
e|----------------------5-------------------------------|
B|--------------------6-------------------------8-------|
G|------------------7-------------------------6---------|
D|------7---7-7---7-------------7---7-7-----7-----------|
A|--5-----------------------5-------------5-------------|

Куплет Riff:
G|--7-5-----------------------7-5-----------------------|
D|-------7--5--3--5--3-------------7--5--3--5--3--------|
A|---------------------5-3-5---------------------5-4-3--|


   Dm              G     Dm                 G
Наперегонки с проводами поезд летит к моей маме
   C           A#            G#
А я по своим скучаю, я не понимаю

Зачем:
   Dm              G         Dm               G
Шар-апельсин тревожит, он больше гореть не может
   C           A#             G#
И я поджигаю тамбур, танцую самбу
       [Fill 1]
И всем светло


Припев:
         A#             A7  A       Dm7
  Она читает в метро Набокова       -5-
         Dm7                Dm7     -6-
  Я сижу около, веревочки связаны   -5-
          A#                        -7-
  Маме доказано                     -5-
          C                         -x-
  Самое главное
  A#   A
  е!


Вне сумасшедшей гонки, в сердце самой воронки
Я прячу себя углами, я еду к маме
Отбой
После моих историй перевернулось море
Но кто-то придумал сушу и стало лучше
Само собой

Припев

Припев Riff:
D|---5-x-----7-x-----------x-x-x---------------------------5-3-|
A|---5-x-----7-x-----3-5---x-x-x-8---6---6-----------5--3------|
E|-3-----3-5-----3-5-------------------8---8-5-4-3-------------|

Проигрыш Riff
Наверх