Аккорды Земфира - Лондон

Добавлено: @romashka
Дата добавления: 16 Марта 2013г.
Рейтинг:
0.0
Просмотров: 748
Транспонировать - +
F  Bb Bbmaj7 Gm Gmmaj7 Gm7 A A7  C  D D# Dm7 D7sus2
E|--5---6---5----3---3-----3---5--5--3--5--6--5----5--|
B|--6---6---6----3---3-----6---5--8--5--7--8--6----5--|
G|--5---7---7----3---3-----3---6--6--5--7--8--5----5--|
D|--7---8---8----5---4-----3---7--5--5--7--8--7----7--|
A|--8---8---x----5---5-----5---7--7--3--5--6--5----5--|
E|--x---6---x----3---3-----3---5--5--x--x--x--x----x--|


 F       Bbmaj7        Gm7
Мне приснилось небо Лондона,
 A        A7           Dm7
В нем приснился долгий поцелуй.
 C        Gm          A7
Мы летели вовсе не держась,
 D#               C   D
Кто же из нас первый упадет
 Gm     Gmmaj7    Gm7  A7
Вдребезги на Тауэрский мост


Dm7       D7sus2-Dm7
Утром
Dm7       D7sus2-Dm7
Я узнаю утром,
 Bb   Gm
Ты узнаешь позже-ээ,
 Bb   C
Этих снов дороже
 Dm7
Ничего и нет.


Припев:
   Bbmaj7           A7
 Без таких вот звоночков
   Bbmaj7
 Я же зверь-одиночка
   A7
 Промахнусь, свихнусь ночью -
   Dm7 D7sus2-Dm7
 Не заметит никто.
   Bbmaj7            A7
 Все тот же зверь-одиночка,
   Bbmaj7            A7
 Я считаю шажочки до последней до точки,
   Dm7 D7sus2-Dm7
 Побежали летать!


Bridge:
   F
 На-на-на-на на на
   Am
 На-на-на-на на на
   Bb        Bbmaj7     Bb6  (Cadd9)
 На-на-на-на наа-на  аааэ


   Am Bb Bbmaj7 Bb6 Cadd9
E|--5--6---5----(6)---0--|
B|--5--6---6-----6----3--|
G|--5--7---7-----7----0--|
D|--7--8---8-----5----2--|
A|--7--8---x-----5----3--|
E|--5--6---6-----6----x--|


Мне приснилось небо Лондона,
В нем приснился долгий поцелуй.
Мы гуляли там по облакам,
Притворились лондонским дождем,
Моросили вместе на асфальт


Утром.
Я узнаю утром,
Ты узнаешь позже-э,
Этих слов дороже
Ничего и нет.
Наверх