Аккорды Земфира - Сигареты

Добавлено: @vitos
Дата добавления: 16 Марта 2013г.
Рейтинг:
0.0
Просмотров: 935
Транспонировать - +
  Dm          Cm           G
Прячется вечер пудрится звезда
  A            A#           C
И я тебе друг а ты мне не то чтобы
Чайные плечи из Ленинграда
Дрогнули вдруг и замерли навсегда


Припев:
 F                Cadd4             Dm7
 Если бы можно в сердце поглубже вклеить портреты

e|-------1----------------1-----------------1--|
B|----1----------------1-----------------1-----|
G|---------------------------------------------|  Cadd4 Dm7
D|-3----------------2-----------------0--------|   -1-  -1-
                                                   -1-  -1-
         E                G                        -0-  -2-
 И я на память оставлю свои сигареты               -2-  -0-
                                                   -3-  -0-
e|---------------0----------------3--|             -x-  -x-
B|------------0----------------3-----|
G|-----------------------------------|
D|---------2----------------5--------|

Если бы можно в сердце поглубже вклеить портреты
И я на память оставлю свои сигареты


Плавится шоссе искрятся стопы
И я тебе друг а ты мне не то чтобы
Очередь в кассы хмурые копы
И я тебе друг а ты мне ну кто мне ты...


Припев:
Если бы можно в сердце поглубже вклеить портреты
И я на память оставлю свои сигареты
Если бы можно в сердце поглубже вклеить портреты
И я на память оставлю свои сигаре... ты

Если бы можно в сердце поглубже вставить кассеты
И я на память оставлю свои сигареты
Если бы можно в сердце поглубже вставить кассеты
И я на память оставлю свои сигаре... ты


EndRiff:
e|--------1-----------1-----------1-----------1-----|
B|-----1-----1-----1-----1-----1-----1-----1-----1--|
G|--------------------------------------------------|
D|--3-----------3-----------2-----------2-----------|
Наверх