Аккорды ЖЩ - Пойдем в Макдак

Добавлено: @romashka
Дата добавления: 19 Апреля 2018г.
Рейтинг:
0.0
Просмотров: 112
Транспонировать - +
Main Riff:
e|--------------------|------------------|----------------|----------|
B|--------------------|------------------|----------------|----------|
G|---------9-7-9------|--------9-7-9-----|------9-7-9-----|----------|
D|-----9-7------9-7-9-|-----9-7-----9-7-5|--9-7------9-7-9|---9-7-5--|
A|-7-7----------------|---7--------------|-7--------------|-7--------|
E|--------------------|------------------|----------------|----------|
 
Verse:
         E5  C5
Ты знаешь Катя 
                  G5        B5
Мне здесь так грустно, просто смерть
         E5  C5
Но с меня хватит
           G5     B5
Мы не обязаны терпеть
 
         E5  C5
Ты знаешь есть такое место
           G5     B5
Где не дают сосисок в тесте
         E5  C5
Где не обидит старшеклассник
           G5     B5
Тех кто слабее или младше
 
       E5  C5
Рай на Земле торговый центр
           G5     B5
Там можно все, Пускай за деньги
         E5  C5
Пусть тот сильнее, кто заплатит
           G5     B5
Но знаешь, Катя, пойдем в макдак

         E5  C5
Садись в маршрутку
           G5     B5
Возьмём картошку на двоих
         E5  C5
А крошки скормим голубям
         G5  B5
И в парке уткам
 
         E5  C5
Пойдем в макдак, мне там уютней
           G5     B5
Я там не видел грязных стен
         E5  C5
Там вкусно пахнет, нет проблем
           G5     B5
И серых будней пойдем в макдак
 
Outro:
e|---------|-----------|
B|-10-8----|-10-8-12---|
G|-----9-7-|--------11-|
D|---------|-----------|
A|---------|-----------|
E|---------|-----------|
comments powered by Disqus
Наверх